Red Hot Chili Peppers - Suck My Kiss Chords & Tabs

 

Suck My Kiss Chords & Tabs

Red Hot Chili Peppers Chords & Tabs

Version: 3 Type: Bass Tab 0 ratings
1 star 2 stars 3 stars 4 stars 5 stars
comments

Suck My Kiss Bass Tab

intro 
G|---------------------------|    
D|---------------------------|    
A|---------1-----------------|    
E|--1---3------------1---3---| x3 
						Both x2
G|--------------------------7h9-9--|
D|---------3-3-3-3--5/7-7-7--------|
A|-3h5-5-5-------------------------|
E|---------------------------------| x1 


Verse
G|------------------------|--------------------------------|    
D|------------------------|--------------------------------|    x4
A|------------------------|------------------------1h3-1---|  
E|--1---3-33--1-----333--|--1---3-33--1-----3--3----------| 

G|------------------|--------------------|
D|-------3----------|-3-------3------4---|  x1
A|---------------3--|------------4-------|
E|--1---------------|--------------------| 

G|--------------------------|-------------------------------|    
D|--------------------------|-------------------------------|   x2  
A|--------------------------|-----------------------1h3-1---|  
E|--1---3-33--1-----3--33---|--1---3-33--1-----3--3---------|

G|------------------|--------------------|
D|-------3----------|-3-------3------4---|  x1
A|---------------3--|------------4-------|
E|--1---------------|--------------------|

G|-------------------------|--------------------|
D|-------------------------|--------------------|   x1
A|-------------------------|-------------1------|
E|--1---3-33--1-----3-33---|--1--3----3---------|


Chourus 1
	    	
G|-----------------------------|
D|----------5-----5------------| x3
A|-------------5-----5---------|
E|--0--0----------------0-5-5--|

G|---------------|
D|---------------|   x1
A|---------------|
E|---0---0---0---|

G|-----------------------------|
D|----------5-----5------------|   x1
A|-------------5-----5---------|
E|--0--0----------------0-5-5--|

Verse
G|--------------------------|-------------------------------|    
D|--------------------------|-------------------------------|    x4
A|--------------------------|-----------------------1h3-1---|  
E|--1---3-33--1-----3--33---|--1---3-33--1-----3--3---------| 

G|------------------|--------------------|
D|-------3----------|-3-------3------4---|  x1
A|---------------3--|------------4-------|
E|--1---------------|--------------------| 
[ Tab from: http://www.guitartabs.cc/tabs/r/red_hot_chili_peppers/suck_my_kiss_btab_ver_3.html ]
G|--------------------------|-------------------------------|    
D|--------------------------|-------------------------------|   x2  
A|--------------------------|-----------------------1h3-1---|  
E|--1---3-33--1-----3--33---|--1---3-33--1-----3--3---------|

G|------------------|--------------------|
D|-------3----------|-3-------3------4---|  x1
A|---------------3--|------------4-------|
E|--1---------------|--------------------|

G|-------------------------|--------------------|
D|-------------------------|--------------------|   x1
A|-------------------------|-------------1------|
E|--1---3-33--1-----3-33---|--1--3----3---------|


Chourus 2
G|-----------------------------|
D|----------5-----5------------|   x3
A|-------------5-----5---------|
E|--0--0----------------0-5-5--|


G|--------------|
D|--------------|   x1
A|--------------|
E|----0----0----|

Play this just once before the guitar solo 
G|-----------------------------|-----------|
D|----------5-----5------------|-----------|
A|-------------5-----5---------|--1--------|
E|--0--0----------------0-5-5--|-----------|

Now play the introduction exactly how it is written

Verse
G|--------------------------|-------------------------------|    
D|--------------------------|-------------------------------|    x2
A|--------------------------|-----------------------1h3-1---|  
E|--1---3-33--1-----3--33---|--1---3-33--1-----3--3---------| 



G|------------------|--------------------|
D|-------3----------|-3-------3------4---|  x1
A|---------------3--|------------4-------|
E|--1---------------|--------------------|


G|--------------------------|-------------------------------|    
D|--------------------------|-------------------------------|    x2
A|--------------------------|-----------------------1h3-1---|  
E|--1---3-33--1-----3--33---|--1---3-33--1-----3--3---------| 

G|------------------|--------------------|
D|-------3----------|-3-------3------4---|  x1
A|---------------3--|------------4-------|
E|--1---------------|--------------------|

G|-------------------------|--------------------|
D|-------------------------|--------------------|   x1
A|-------------------------|-------------1------|
E|--1---3-33--1-----3-33---|--1--3----3---------|

Chorus 3

G|-----------------------------|
D|----------5-----5------------|   x3
A|-------------5-----5---------|
E|--0--0----------------0-5-5--|

G|--------------|
D|--------------|     x1
A|--------------|
E|------0-------|

One last time before the end of the song
G|-----------------------------|
D|----------5-----5------------|
A|-------------5-----5---------|
E|--0--0----------------0-5-5--|
Comments