Red Hot Chili Peppers - Suck My Kiss Chords & Tabs

 

Suck My Kiss Chords & Tabs

Red Hot Chili Peppers Chords & Tabs

Version: 1 Type: Bass Tab 2 ratings
1 star 2 stars 3 stars 4 stars 5 stars
comments

Suck My Kiss Bass Tab

Song: Suck My Kiss
Artist: Red Hot Chili Peppers
Album: Bllod Sugar Sex Magik (1991)

I hvnt tabbed many songs, but i have been playing this song from the 
tab currently on the site, but after finding it in the official bass 
tab book, i found sum parts to be wrong
So hear is the Corrected tab

any comments - email to: lgilbert41@aol.com

Listen to CD for rhythm and timing, etc
[ Tab from: http://www.guitartabs.cc/tabs/r/red_hot_chili_peppers/suck_my_kiss_btab.html ]
Intro/Guitar Solo
G|-repeat bar x3--|---------------7/9-9-|
D|----------------|-------3-5-7-7-------|
A|-------1--------|-3/5-5---------------|
E|-1--3-----1--3--|---------------------|

Verse
G|-------------------|------------------------|
D|-------------------|------------------------|
A|-------------------|---------------1-3-1----|
E|-1--3--3--1--3--3--|-1--3--3--1--3-------1--|

Pre-Chorus
G|-----------------------|
D|-----2------2--------3-|
A|-2-2----2-2---2--3-3---|
E|-----------------------|

Chorus
G|---------------------|
D|-------5---5---------|
A|---------5---5-------|
E|-0-0-----------0-5-5-|
Comments