Red Hot Chili Peppers - Subterranean Homesick Blues Chords & Tabs

 

Subterranean Homesick Blues Chords & Tabs

Red Hot Chili Peppers Chords & Tabs

Version: 3 Type: Bass Tab 0 ratings
1 star 2 stars 3 stars 4 stars 5 stars
comments

Subterranean Homesick Blues Bass Tab

   
Title: Subterrainean Homesick Blues
Album: The Uplift Mofo Party Plan
Artist: Red Hot Chili Peppers
Members: Anthony Kiedis, FLEA, Hillel Slovack and Jack Irons
Transcription: Bass Tab
Tuning: Standard E A D G
Tabbed by: Sean Lewis

Key
 / = Slide Up To Fret
 \ = Slide Down To Fret
 h = Hammer On
 p = Pull Off
 X = Muted Note
 > = Let Ring
 I) = Bend Up
 U) = Bend Down
 T = Tap (wack string with joining bone on thumb)
 P = Pop (pull the string upwards with index finger, middle, ring, or pinky 
          releasing it to make a twang)

very funky:  with practice u'll be able to come in on time
at the start

Intro:
G]------------------------------------------------------------------]
D]------------------------------------------------------------------]
A]---------4-5--4-5-4------7----5----------------4-5--4-5-----------]
E]---0-----------------0-----------6--3---2---0------------0--3--2--]

G]------------------------------------------------------------------]
D]------------------------------------------------------------------]
A]---------4-5--4-5-4------7----5----------------4-5--4-5-----------]
E]---0-----------------0-----------6--3---2---0------------0--3--2--]

G]------------------------------------------------------------------]
D]------------------------------------------------------------------]
A]---------4-5--4-5-4------7----5----------------4-5--4-5-----------]
E]---0-----------------0-----------6--3---2---0------------0--3--2--]

G]------------------------------------------------------------------]
D]------------------------------------------------------------------]
A]---------4-5--4-5-4------7----5----------------4-5--4-5-----------]
E]---0-----------------0-----------6--3---2---0------------0--3--2--]
[ Tab from: http://www.guitartabs.cc/tabs/r/red_hot_chili_peppers/subterranean_homesick_blues_btab_ver_3.html ]
G]------------------------------------------------------------------]
D]------------------------------------------------------------------]
A]---------4-5--4-5-4------7----5----------------4-5--4-5-----------]
E]---0-----------------0-----------6--3---2---0------------0--3--2--]

G]--------------------------------------]
D]--------------------------------------]
A]---------4-5--4-5-4------7----5-------]
E]---0-----------------0-----------6--3-]

look i cant find my cd but i know u just keep hitting the A
in the amount times needed its not hard
Chorus:
G]------------------------------------------------------------------]
D]------------------------------------------------------------------]
A]------------------------------------------------------------------]
E]---17\----5-----5---5---5-----5---5---5---5---5----5----5--5----5-]

u just play the amount of times there
its not hard to imterperate

Bridge:
G]------------------------------------------------------------------]
D]------------------------------------------------------------------]
A]------------------------------------------------------------------]
E]--8---8--8-8-8--8--8-8--8---8--8-8-8-8----8---8----8--------------]

again just play the notes when heard

Interlude:(killlen em)

G]-----------------------------------------------------------------]
D]-----------------------------------------------------------------]
A]-----------------------------------------------------------------]
E]--0-2--2-------0-2--2-----0--2--2------0--2--2-------------------]

G]-----------------------------------------------------------------]
D]-----------------------------------------------------------------]
A]-----------------------------------------------------------------]
E]--0--2-0-2/12--0--2---0--2/14--0-2---0-2/12\10/16---0-2-0-2/12---]

G]-----------------------------------------------------------------]
D]-----------------------------------------------------------------]
A]-----------------------------------------------------------------]
E]--0--2-0-2/12--0--2---0--2/14--0-2---0-2/12\10/16---0-2-0-2/20\0-]

Outro is just the Chorus
u know what to do

Its all there
enjoy

Comments Are Welcome and Would Be Appreciated
Comments