Red Hot Chili Peppers - Strip My Mind Chords & Tabs

 

Strip My Mind Chords & Tabs

Red Hot Chili Peppers Chords & Tabs

Version: 2 Type: Tab

Strip My Mind Tab

This song is amazing and simple, but here's the trickier part: the solo. Enjoy!

|| STRIP MY MIND ||
|| RED HOT CHILI PEPPERS ||
|| STADIUM ARCADIUM ||

e|-5---5----------------------------------------------------| 
B|-5---5----------------------------------------------------| 
G|-7~--7~--5--5--5---5h7--7b9r7--5---5h7--7b9r7---5--7b9r7--| 
D|-----------------7---------------7------------7-----------| 
A|----------------------------------------------------------| 
E|----------------------------------------------------------| 
[ Tab from: http://www.guitartabs.cc/tabs/r/red_hot_chili_peppers/strip_my_mind_tab_ver_2.html ]
e|-12-----15b17r15--12--15----------------------------------| 
B|-15~7---------------------15b17r15--13--13--13----15------| 
G|-----------------------------------------------14---------| 
D|----------------------------------------------------------| 
A|----------------------------------------------------------| 
E|----------------------------------------------------------| 

e|----------------------------------------------------------| 
B|-15b17r15-13---15---15b17r15---13-----15--17--17--18--15--| 
G|---------------14-----------------14----------------------| 
D|----------------------------------------------------------| 
A|----------------------------------------------------------| 
E|----------------------------------------------------------| 

That's it, then carry on with the chords. Please rate/comment.