Red Hot Chili Peppers - Storm In A Teacup Chords & Tabs

 

Storm In A Teacup Chords & Tabs

Red Hot Chili Peppers Chords & Tabs

Version: 2 Type: Bass Tab

Storm In A Teacup Bass Tab

   
               Storm in a Teacup - Red Hot Chili Peppers
----------------------------------------------------------------------------------------------|

Tabbed By : Arato
e-mail: leanord@gmail.com

Tuning: Standard (EADG)

Verse pt 1 (8x)
G|------------------------------------|
D|--------------------------------10-8|
A|-8h10-10-10-10---8h10-10-10-10------|
E|------------------------------------|

Verse pt 2 (8x)
G|-------------------------------|
D|----------------------10p8-----|
A|10p8h10--8h10--8h10p8----------|
E|-------------------------------|

Chorus pt 1 (3x)
G|-----------------------------------|
D|-----------------------------------|
A|-3-3-3--3p1-11-1--1----------------|
E|-------------------1-1-1-0h3-3-3p1-|

Chorus pt 2 (1x))
G|----------------------------------------------------|
D|----------------------------------------------------|
A|-3-3-3-3p1-11-1--1/5-5-5-5-5-5-5-5-5-5-5-5/8-8-8-8--|
E|----------------------------------------------------|
[ Tab from: http://www.guitartabs.cc/tabs/r/red_hot_chili_peppers/storm_in_a_teacup_btab_ver_2.html ]
Post Chorus (1x)
G|----------------------------------------------|
D|----------------------------------------------|
A|----------------------------------------------|
E|-33-1--33-1--33-1--33-1--33-1--33-1--3~~------|

Verse  pt1  (8x)
Chorus pt1  (3x)
Chorus pt2  (1x)
Post Chorus (1x)

During Bridge (or whatever you wanna call it) (2x)
G|----------------------------------|
D|----------------------------------|
A|-10~~~~~--8~~~~~--5~~~~~--3~~~~~--|
E|----------------------------------|

Verse  pt2  (8x)
Chorus pt1  (3x)
Chorus pt2  (1x)
Post Chorus (1x)

And that's basically it but of course, most chili pepper fans know that FLEA likes to
things up a bit and there are parts at the end of the verses and things in the bridge that
tabbed out here, and aren't really required to play the song. Besides you should do it 
way ou wanna. Anyways thanks for checkin my tabs out PEACE!


| /  slide up
|   slide down
| h  hammer-on
| p  pull-off
| ~  vibrato
| +  harmonic
| x  Mute note
============================================================================