Red Hot Chili Peppers - Stone Cold Bush Chords & Tabs

 

Stone Cold Bush Chords & Tabs

Red Hot Chili Peppers Chords & Tabs

Version: 4 Type: Tab 0 ratings
1 star 2 stars 3 stars 4 stars 5 stars
comments

Stone Cold Bush Tab

   
INTRO:  
Gtr.1
(wah-wah & dist.)

     Gm7     
e-|----------------------------------|----------------------------------|
B-|------------11-------------11-----|------------11--------------------|
G-|------------10-------------10-----|------------10--------------------|
D-|----------------------------------|----------------------------------|
A-|--10-10-x-x------10-10-x-x--------|--10-10-x-x----------7---8---9----|
E-|----------------------------------|----------------------------------|


Gtr.2 (dist.)
e-|----------------------------------|----------------------------------|
B-|----------------------------------|----------------------------------|
G-|----------------------------------|----------------------------------|
D-|--5--5--5--5-----5--5--5--5-------|----------------------------------|
A-|----------------------------------|----------------------------------|
E-|----------------------------------|--3--3--3--3---------0---1---2----|

________________________________________________________________________
Gtr.1

     Gm7
e-|----------------------------------|----------------------------------|
B-|------------11-------------11-----|----------------------------------|
G-|------------10-------------10-----|----5----5---3--------------------|
D-|----------------------------------|--5----5--------------------------|
A-|--10-10-x-x------10-10-x-x--------|---------------------3----3---1---|
E-|----------------------------------|-------------------3----3---------|


Gtr.2
e-|----------------------------------|----------------------------------|
B-|----------------------------------|----------------------------------|
G-|----------------------------------|----5----5---3--------------------|
D-|--5--5--5--5-----5--5--5--5-------|--5----5--------------------------|
A-|----------------------------------|---------------------3----3---1---|
E-|----------------------------------|-------------------3----3---------|

________________________________________________________________________
VERSE 1:
Gtr.1


e-|----------------------------------|----------------------------------|
B-|-15-15-----15---------15---15-----|----------------------------------|
G-|-15-15-x-x-15---x-x-x-15-x-15-x-x-|----5----5---3--------------------|
D-|-15-15-x-x-15---x-x-x-15-x-15-x-x-|--5----5--------------------------|
A-|----------------------------------|---------------------3----3---1---|
E-|----------------------------------|-------------------3----3---------|



e-|----------------------------------|----------------------------------|
B-|---15----15-------15----15--------|---15---15-------15---15-15-15-15-|
G-|-x-15--x-15-x-x-x-15--x-15---x-x--|-x-15-x-15-x-x-x-15-x-15-15-15-15-|
D-|-x-15--x-15-x-x-x-15--x-15---x-x--|-x-15-x-15-x-x-x-15-x-15-15-15-15-|
A-|----------------------------------|----------------------------------|
E-|----------------------------------|----------------------------------|



e-|----------------------------------|---8----8---6---------------------|
B-|-15-15-----15-------15----15------|-8-x--8-x---x---------------------|
G-|-15-15-x-x-15-x-x-x-15--x-15-x-x--|-x-5--x-5---3--------5----5---3---|
D-|-15-15-x-x-15-x-x-x-15--x-15-x-x--|-5----5------------5-x--5-x---x---|
A-|----------------------------------|-------------------x-3--x-3---1---|
E-|----------------------------------|-------------------3----3---------|


CHORUS 1:
Gtr.1 (dist.)

    C5 
e-|----------------------------------|
B-|---------15--------15-----15------|
G-|-x-x-x-x-15--x-x-x-15-x-x-15-x-x--|
D-|-x-x-x-x-15--x-x-x-15-x-x-15-x-x--|
A-|-10--10--10--10----10-10--10-10---|
E-|-8---8---8---8-----8--8---8--8----|


    Bb5               F/A
e-|----------------------------------|
B-|---------15--------15-----15------|
G-|-x-x-x-x-15--x-x-x-15-x-x-15-x-x--|
D-|-x-x-x-x-15--x-x-x-15-x-x-15-x-x--|
A-|-8---8---8---8-----8--8---8--8----|
E-|-6---6---6---6-----5--5---5--5----|


    Gm7
e-|----------------------------------|----------------------------------|
B-|---------15--------------15-------|---------15--------------15-------|
G-|-x-x-x-x-15------x-x-x-x-15-------|-x-x-x-x-15------x-x-x-x-15-------|
D-|-x-x-x-x-15------x-x-x-x-15-------|-x-x-x-x-15------x-x-x-x-15-------|
A-|-x-------1-------x-----x-1--------|-x-------1-------x-x-x-x-1--------|
E-|-3------------3--3-----3----------|-3----------3-3--1-1-3-3----3-3---|


    C5 
e-|----------------------------------|
B-|---------15--------15-----15------|
G-|-x-x-x-x-15--x-x-x-15-x-x-15-x-x--|
D-|-x-x-x-x-15--x-x-x-15-x-x-15-x-x--|
A-|-10--10--10--10----10-10--10-10---|
E-|-8---8---8---8-----8--8---8--8----|


    Bb5                F/A              Gm7
e-|----------------------------------|----------------------------------|
B-|---------15--------15-----15------|----------------------------------|
G-|-x-x-x-x-15--x-x-x-15-x-x-15-x-x--|----------------------------------|
D-|-x-x-x-x-15--x-x-x-15-x-x-15-x-x--|----------------------------------|
A-|-8---8---8---8-----8--8---8--8----|--5-------------------------------|
E-|-6---6---6---6-----5--5---5--5----|--3-------------------------------|


VERSE 2:
Gtr.1


e-|----------------------------------|----------------------------------|
B-|-15-15-----15---------15---15-----|----------------------------------|
G-|-15-15-x-x-15---x-x-x-15-x-15-x-x-|----5----5---3--------------------|
D-|-15-15-x-x-15---x-x-x-15-x-15-x-x-|--5----5--------------------------|
A-|----------------------------------|---------------------3----3---1---|
E-|----------------------------------|-------------------3----3---------|



e-|----------------------------------|----------------------------------|
B-|---15----15-------15----15--------|---15---15-------15---15-15-15-15-|
G-|-x-15--x-15-x-x-x-15--x-15---x-x--|-x-15-x-15-x-x-x-15-x-15-15-15-15-|
D-|-x-15--x-15-x-x-x-15--x-15---x-x--|-x-15-x-15-x-x-x-15-x-15-15-15-15-|
A-|----------------------------------|----------------------------------|
E-|----------------------------------|----------------------------------|



e-|----------------------------------|---8----8---6---------------------|
B-|-15-15-----15-------15----15------|-8-x--8-x---x---------------------|
G-|-15-15-x-x-15-x-x-x-15--x-15-x-x--|-x-5--x-5---3--------5----5---3---|
D-|-15-15-x-x-15-x-x-x-15--x-15-x-x--|-5----5------------5-x--5-x---x---|
A-|----------------------------------|-------------------x-3--x-3---1---|
E-|----------------------------------|-------------------3----3---------|


CHORUS 2:
Gtr.1 (dist.)

    C5 
e-|----------------------------------|
B-|---------15--------15-----15------|
G-|-x-x-x-x-15--x-x-x-15-x-x-15-x-x--|
D-|-x-x-x-x-15--x-x-x-15-x-x-15-x-x--|
A-|-10--10--10--10----10-10--10-10---|
E-|-8---8---8---8-----8--8---8--8----|


    Bb5               F/A
e-|----------------------------------|
B-|---------15--------15-----15------|
G-|-x-x-x-x-15--x-x-x-15-x-x-15-x-x--|
D-|-x-x-x-x-15--x-x-x-15-x-x-15-x-x--|
A-|-8---8---8---8-----8--8---8--8----|
E-|-6---6---6---6-----5--5---5--5----|


    Gm7
e-|----------------------------------|----------------------------------|
B-|---------15--------------15-------|---------15--------------15-------|
G-|-x-x-x-x-15------x-x-x-x-15-------|-x-x-x-x-15------x-x-x-x-15-------|
D-|-x-x-x-x-15------x-x-x-x-15-------|-x-x-x-x-15------x-x-x-x-15-------|
A-|-x-------1-------x-----x-1--------|-x-------1-------x-x-x-x-1--------|
E-|-3------------3--3-----3----------|-3----------3-3--1-1-3-3----3-3---|


    C5 
e-|----------------------------------|
B-|---------15--------15-----15------|
G-|-x-x-x-x-15--x-x-x-15-x-x-15-x-x--|
D-|-x-x-x-x-15--x-x-x-15-x-x-15-x-x--|
A-|-10--10--10--10----10-10--10-10---|
E-|-8---8---8---8-----8--8---8--8----|


    Bb5                F/A              Gm7
e-|----------------------------------|----------------------------------|
B-|---------15--------15-----15------|----------------------------------|
G-|-x-x-x-x-15--x-x-x-15-x-x-15-x-x--|----------------------------------|
D-|-x-x-x-x-15--x-x-x-15-x-x-15-x-x--|----------------------------------|
A-|-8---8---8---8-----8--8---8--8----|--5-------------------------------|
E-|-6---6---6---6-----5--5---5--5----|--3-------------------------------|



GUITAR SOLO:
Gtr.1 (dist. & wah-wah)
[ Tab from: http://www.guitartabs.cc/tabs/r/red_hot_chili_peppers/stone_cold_bush_tab_ver_4.html ]
                                       Gm7
e-|----------------------------------|----------------------------------|
B-|-xxxxxxxxxxx----------------------|----------------------------------|
G-|-xxxxxxxxxxx----------------------|-3-----------5~~~~---5---3~~------|
D-|-xxxxxxxxxxx/5---7--7\------------|-----3---5------------------------|
A-|-xxxxxxxxxxx----------------------|----------------------------------|
E-|---------------0--------0---0-----|----------------------------------|


e-|----------------------------------|----------------------------------|
B-|----------------------------------|----------------------------------|
G-|--3-----------5~~~~---3---5-------|-----3-3h4------------------------|
D-|------3---5-----------------------|-3h5-------5p0--3---3---3---------|
A-|----------------------------------|----------------------------------|
E-|----------------------------------|----------------------------------|


e-|----------------------------------|----------------------15----------|
B-|----------------------------------|---------------18~~~~----15--18~--|
G-|------3---3~~--3--5~~~~--------5--|--5------17p15--------------------|
D-|--3h5-----------------------------|----------------------------------|
A-|----------------------------------|----------------------------------|
E-|----------------------------------|----------------------------------|
                                               T

e-|----------------------------------|----------------------------------|
B-|-18~~~~18~~~~18~~~~--18~~~~18~~~~-|-18~~~~18~~~~---------------------|
G-|-------------17~~~~--17~~~~17~~~~-|-17~~~~17~~~~-----15\\\\----------|
D-|----------------------------------|------------------15\\\\----------|
A-|----------------------------------|----------------------------------|
E-|----------------------------------|----------------------------------|

fast:
e-|-18P15P13------------------------------------------------------------|
B-|----------20P18P15----------------20P18P15P13H18P15P13----------20---|
G-|-------------------19P17P15H17P15----------------------18P17P15------|
D-|---------------------------------------------------------------------|
A-|---------------------------------------------------------------------|
E-|---------------------------------------------------------------------|
    T        T        T        T     T                    T         T

e-|-------20P18P15-------20P18P15-------------------------18H20P18P15---|
B-|-18P15----------18P15----------18H20P18H20P18P15------------------18-|
G-|-------------------------------------------------17P15---------------|
D-|---------------------------------------------------------------------|
A-|---------------------------------------------------------------------|
E-|---------------------------------------------------------------------|
          T        T     T           T     T        T      T         T 

e-|----------18-18-18----18-18-------|-18-------------------------------|
B-|-0-10~~~~-18-18-10~~~~10-10~~~~---|-10~~~~--0////\\\\----------------|
G-|-0--------------------------------|---------0////\\\\----------------|
D-|----------------------------------|----------------------------------|
A-|----------------------------------|----------------------------------|
E-|----------------------------------|----------------------------------|


e-|----------------------------------|----------------------------------|
B-|----------------------------------|-----------18~~18~18~~~~-18P15~~~-|
G-|-15-17-15-0--15-17-15-0--17-15-0--|-0-17-15-0------------------------|
D-|----------------------------------|----------------------------------|
A-|----------------------------------|----------------------------------|
E-|----------------------------------|----------------------------------|
________________________________________________________________________
Gtr.1

e-|--18~~-~20~~~~~~~~~~~~~~~~~~~~~~~-|20~~~~~~~~~~~~~~~~~~~~~~~~~~~~~~~~|
B-|----------------------------------|----------------------------------|
G-|----------------------------------|----------------------------------|
D-|----------------------------------|----------------------------------|
A-|----------------------------------|----------------------------------|
E-|----------------------------------|----------------------------------|

Gtr.2
    D5
e-|------------------------|------------------------|-1010101010101010--|
B-|------------------------|------------------------|-1010101010101010--|
G-|------------------------|-7--7--7--7--7--7--7--7-|(10)---------------|
D-|-7--7--7--7--7--7--7--7-|-7--7--7--7--7--7--7--7-|-------------------|
A-|-5--5--5--5--5--5--5--5-|-5--5--5--5--5--5--5--5-|-------------------|
E-|------------------------|------------------------|-------------------|
________________________________________________________________________

BRIDGE:

Gtr.1
(wah-wah & dist.)

     Gm7     
e-|----------------------------------|----------------------------------|
B-|------------11-------------11-----|------------11--------------------|
G-|------------10-------------10-----|------------10--------------------|
D-|----------------------------------|----------------------------------|
A-|--10-10-x-x------10-10-x-x--------|--10-10-x-x----------7---8---9----|
E-|----------------------------------|----------------------------------|


Gtr.2 (dist.)
e-|----------------------------------|----------------------------------|
B-|----------------------------------|----------------------------------|
G-|----------------------------------|----------------------------------|
D-|--5--5--5--5-----5--5--5--5-------|----------------------------------|
A-|----------------------------------|----------------------------------|
E-|----------------------------------|--3--3--3--3---------0---1---2----|

________________________________________________________________________
Gtr.1

     Gm7
e-|----------------------------------|----------------------------------|
B-|------------11-------------11-----|----------------------------------|
G-|------------10-------------10-----|----5----5---3--------------------|
D-|----------------------------------|--5----5--------------------------|
A-|--10-10-x-x------10-10-x-x--------|---------------------3----3---1---|
E-|----------------------------------|-------------------3----3---------|


Gtr.2
e-|----------------------------------|----------------------------------|
B-|----------------------------------|----------------------------------|
G-|----------------------------------|----5----5---3--------------------|
D-|--5--5--5--5-----5--5--5--5-------|--5----5--------------------------|
A-|----------------------------------|---------------------3----3---1---|
E-|----------------------------------|-------------------3----3---------|


OUTRO:
Gtr.1

      Bb5            F/A
e-|----------------------------------|----------------------------------|
B-|---15----15-------15----15--------|--------------------------------15|
G-|-x-15--x-15-x-x-x-15--x-15--x--x--|--------------------------------15|
D-|-x-15--x-15-x-x-x-15--x-15--x--x--|-17p15-15-15-x-x-17p15-15-15-x-x--|
A-|----------------------------------|----------------------------------|
E-|----------------------------------|----------------------------------|

                                      Gtr.2
e-|----------------------------------|----------------------------------|
B-|--------------------------------17|----------------------------------|
G-|--------------------------------17|----------------------------------|
D-|-17p15-15-15-x-x-17p15-15-15-x-x--|----------------------------------|
A-|----------------------------------|----8--8--8--8----8--8--8--8------|
E-|----------------------------------|----6--6--6--6----5--5--5--5------|

                             
e-|----------------------------------|----------------------------------|
B-|--------------------------------15|--------------------------------17|
G-|--------------------------------15|--------------------------------17|
D-|-17p15-15-15-x-x-17p15-15-15-x-x--|-17p15-15-15-x-x-17p15-15-15-x-x--|
A-|----------------------------------|----------------------------------|
E-|----------------------------------|----------------------------------|


e-|------------------------------------------|
B-|------------------------------------------|
G-|------------------------------------------|
D-|-17p15-15-15-x-x-17p15-15-15x-x-17p15-x-x-|
A-|------------------------------------------|
E-|------------------------------------------|


e-|-------------------------------------------------|
B-|-------------------------------------------------|
G-|-15-15-14-14--13-13-12-12--11-11-----------------|
D-|-x--x--x--x---x--x--x--x---x--x--8---7---6---5\--|
A-|-13-13-12-12--11-11-10-10--9--9--x---x---x---5\--|
E-|---------------------------------6---5---4---3\--|

End.
Comments