Red Hot Chili Peppers - Stone Cold Bush Chords & Tabs

 

Stone Cold Bush Chords & Tabs

Red Hot Chili Peppers Chords & Tabs

Version: 3 Type: Tab 0 ratings
1 star 2 stars 3 stars 4 stars 5 stars
comments

Stone Cold Bush Tab

Band: Red Hot Chili Peppers
Song: Stone Cold Bush
Album: Mothers Milk
Tuning: Standard

Tabbed by Knut Zetterstrøm

The intro of this song is prety much like the verse of the song.
[ Tab from: http://www.guitartabs.cc/tabs/r/red_hot_chili_peppers/stone_cold_bush_tab_ver_3.html ]
e|-------------------------------------------------------|
E|-------------11-------------11-------------11----------|
D|-------------10-------------10-------------10----------|
G|-------------------------------------------------------|
A|-10-10-10-10-----10-10-10-10----10-10-10-10----8-9-10--|
E|-------------------------------------------------------|

e|------------------------------------------------------------|
B|-------------11------------11-------------------------------|
D|-------------10------------10-------------------------------|
G|---------------------------------10----10--8-----8----8-----|
A|-10-10-10-10----10-10-10-10---10----10--------10---10----8--|
E|------------------------------------------------------------|
Comments