Red Hot Chili Peppers - Stone Cold Bush Chords & Tabs

 

Stone Cold Bush Chords & Tabs

Red Hot Chili Peppers Chords & Tabs

Version: 5 Type: Bass Tab 0 ratings
1 star 2 stars 3 stars 4 stars 5 stars
comments

Stone Cold Bush Bass Tab

   
Red Hot Chili Peppers
Stone Cold Bush
Mother's Milk
transcribed(by ear)by Cody Wilson

Key:T=slap
    P=pop
    h=hammer-on
    p=pull-off
    v=vibrato
    s=slide
 Intro:
 riff a                                          
G--------------------------------|-------|-----------------|
D-rest-for-1-and-a-half-measures-|-------|rest for measure-|
A--------------------------------|-------|-----------------|
E--------------------------------|-0-1-2-|-----------------|
           end riff,play twice
G---5---5-3----------|
D-5---5--------------|
A-------------3---3-1|
E-----------3---3----|

verse 1:
 riff b                                           end riff b play twice
G---------------------------|---------------5---5-3----------|
D----5------5------5--------|----5-----5--5---5--------------|
D---------------------------|-------------------------3---3-1|
E3333---3333---3333---0-1-2-|3333--3333-------------3---3----|
 riff c                                      end riff c  play twice
G------------------------|--------------5---5-3----------|
D------------------------|------------5---5--------------|
A------------------------|------------------------3---3-1|
E-33013-33013-33013-0-1-2|33013-33013-----------3---3----|
[ Tab from: http://www.guitartabs.cc/tabs/r/red_hot_chili_peppers/stone_cold_bush_btab_ver_5.html ]
Chorus:
 chorus part one             end
  T T T T T T T T T T T T T T T T   T T P T T T P T T T P TT T P T
G---------------------------------|-----3--|----3--|----3------3---|play 
D---------------------------------|--------|-------|---------------|chorus
A---------------------------------|--------|-------|---------------|part one,
E-8-8-8-8-8-8-8-8-6-6-6-6-5-5-5-5-|-3-x---3|3-x---3|3-x---33-x---3-|again.

verse 2
play riff a twice then play riff c twice.
then play chorus riff twice

 Bass Solo:
 Okay,I know this does not feel like a"true"bass solo because it is so repet-
 ative,but I have the vocal sheet music and it says its a bass solo.Frankly,
 I was a bit suprised,I thought it was just an interlude but oh well.

 riff d
 T  T  P T   P   TP TP TP  T         P    T P T  P      T  P TTT P  T  P
G------12---------11-9--11|--121212---------11--14h15-|---12-----12--------|
D-----------10h12---------|---------10h12-------------|---------------10h12|
A10-x----x-------x--x--x--|x--------------x---x-------|-x----x10x---x------|
E-------------------------|---------------------------|--------------------|
                       end riff d     riff e            end riff e
  T  P T Pvvvv  TP TP TP TP  TT T T  TT PTT TTPTT  TT PTT T T   TT T
G---11---11---|--15-14-13-12--------|-------------|-----------------|play 
D-------------|---------------------|---5---------|---5-------------|riff e
A-x----x------|-x--x--x--x----------|---------1---|-----------------|twice.
E-------------|--------------x6-5-4-|3x--x0-1x-x0-|3x--x0-1-1s6-66-5|

Guitar Solo:play riff e 8 times.

Bridge:

G-----------------------------------12-10|
D------------------1212121212121212------|
A-7777777777777777-----------------------|
E----------------------------------------|

play riff a twice then play the same riff as the first verse.
then play chorus then riff d.
 end on this note.
G------|
D------|
A------|
E-3\---|
Comments