Red Hot Chili Peppers - Stone Cold Bush Chords & Tabs

 

Stone Cold Bush Chords & Tabs

Red Hot Chili Peppers Chords & Tabs

Version: 3 Type: Bass Tab 0 ratings
1 star 2 stars 3 stars 4 stars 5 stars
comments

Stone Cold Bush Bass Tab

From: ShiZZaRhcP@aol.com
Subject: Red Hot Chili PePPeRs- Stone Cold Bush live bass intro

REd Hot ChiLi PePPeRs
Stone Cold Bush-Live Bass Intro
As Seen in Woodstock94 and
Bootleg "Welcome to Pu**yland"
[ Tab from: http://www.guitartabs.cc/tabs/r/red_hot_chili_peppers/stone_cold_bush_btab_ver_3.html ]
                            2X's                                
g||--------------------------||------------|-----------------------|-15-16----
-----------
d||*-12-15-12-14-15-*||------------|-12-15-12-14-15-|-------15--12-15-15-
a||*-----------------------*||-X-13-13-|-----------------------|--------------
----------
e||--------------------------||------------|-----------------------|----------
--------------

                            2X's                                
g||--------------------------||------------|-----------------------
d||*-12-15-12-14-15-*||------------|-12-15-12-14-15-
a||*-----------------------*||-X-13-13-|----------------------
e||--------------------------||------------|----------------------

g------------------------------------------
d-15-17-15----------------------------
a---------------17-16-15-15----------
e----------------------------------18----

This is played FAST!!!!!!
theres a lot of notes, considering the fact that this is only 10 seconds
long.  



Comments