Red Hot Chili Peppers - Soul To Squeeze Chords & Tabs

 

Soul To Squeeze Chords & Tabs

Red Hot Chili Peppers Chords & Tabs

Version: 6 Type: Tab 0 ratings
1 star 2 stars 3 stars 4 stars 5 stars
comments

Soul To Squeeze Tab

   
Soul to squeeze
Red hot chilli peppers

b - bend
r - release
/ - slide
~ - vibrato
x - mute string
() - don't play note
h - hammer on
p - pull off

standard tuning


intro

E---------------------------------------------|
B---------------------------------------------|
G-------2------4br(5)-2-------------2---------|
D----2-------------------------2h4------------|
A-0--------0-------------0--0-----------------|
E---------------------------------------------|



E---------------------------------------------|
B-----------------------------5---------------|
G-------2-----------2-----4/6---6/4--2--------|
D----2--------2-------------------------------|
A-0--------0-----0-----0----------------------|
E---------------------------------------------|

E--------------------------------------|------------------------------|
B--------------------------------------|------------------------------|
G-------2-----4br(5)-2-------------2---|-------2----------------------|
D----2------------------------2h4------|----2--------2-----2-----0----|
A-0--------0------------0--0-----------|-0--------0-----0-------------|
E--------------------------------------|----------------------3-----3-|

E---------------------------------------------|
B---------------------------------------------|
G-------2------4br(5)xx------------2----------|
D----2-------------------------2h4------------|
A-0--------0-------------0--0-----------------|
E---------------------------------------------|



E-------------------------------5--------------|
B----------------------------------------------|
G-------2------------------4/6-----6\4p2-------|
D----2--------2-----2--------------------------|
A-0--------0-----0-----0-----------------------|
E----------------------------------------------|

E---------------------------------------------|
B---------------------------------------------|
G-------2-----4br(5)-2-------------2----------|
D----2------------------------2h4-------------|
A-0--------0------------0--0------------------|
E---------------------------------------------|

now play these slides with this chord progression:

F C Dm Dm F C Gm7 F C Dm Dm F C Gm7


E----------------------|----------------------------------------|
B--8/10---8/10---------|--------------13/15--15\13--------10----|
G----------------------|----------------------------------------|
D----------------------|----------------------------------------|
A----------------------|----------------------------------------|
E----------------------|----------------------------------------|

E-------------|---------------|--------------|-----------------------|
B----13--10---|---------------|-----------13-|--10---------13/15~----|
G-------------|--10~----------|---12b(14)----|-----------------------|
D-------------|---------------|--------------|-----------------------|
A-------------|---------------|--------------|-----------------------|
E-------------|---------------|--------------|-----------------------|

E---------------------|------------------------|
B----13/15~--------13-|-------10---------------|
G---------------------|------------------------|
D---------------------|------------------------|
A---------------------|------------------------|
E---------------------|------------------------|

Verse (same chord progression)


   'well all the love from me'
E---------------------------------------------|
B-------------------------------13/15\13~-----|
G---------------------------------------------|
D---------------------------------------------|
A---------------------------------------------|
E---------------------------------------------|
   
 'with all these dying trees i scream'
E---------------------------------------------|
B--------------------------------------13-10~-|
G---------------------------------------------|
D---------------------------------------------|
A---------------------------------------------|
E---------------------------------------------|

 'the angels in my dreams'
E---------------------------------------------|
B-------------------------8h10p8\6------------|
G---------------------------------------------|
D---------------------------------------------|
A---------------------------------------------|
E---------------------------------------------|

 'have turned to demons of greed that's me'
E---------------------------------------------|
B---------------------------------------------|
G---------------------------------------------|
D---------------------------------------------|
A---------------------------------------------|
E---------------------------------------------|

chorus

 'where i go'
E-----------------0---------------------------|
B-----------------6---------------------------|
G-----------------7---------------------------|
D---------------------------------------------|
A---------------------------------------------|
E---------------------------------------------|

 'i just don't know'
E-----------------------0---------------------|
B-----------------------6---------------------|
G---------------------------------------------|
D---------------------------------------------|
A---------------------------------------------|
E---------------------------------------------|

 'i got to, gotta, gotta take it slow
E-------------------------0-------------------|
B-------------------------6-------------------|
G---------------------------------------------|
D---------------------------------------------|
A---------------------------------------------|
E---------------------------------------------|

 'when i find my piece of mind'
E------------------0--------------------------|
B------------------6--------------------------|
G------------------7--------------------------|
D---------------------------------------------|
A---------------------------------------------|
E---------------------------------------------|

 'i'm gonna give you some of my good time'
E--0----0----0----0---0---0---------------------------|
B--6----6----6----6---6---6-------6-------------------|
G-----------------------------7-------6---------------|
D-----------------------------------------------------|
A-----------------------------------------------------|
E-----------------------------------------------------|

verse

 'today love smiled on me'
E---------------------------------------------|
B----13~--------------------------------------|
G---------------------------------------------|
D---------------------------------------------|
A---------------------------------------------|
E---------------------------------------------|

 'it took away my pain, said please'
E-------------------------------------------------------------|
B---------------------------------------13-15--10h13p10\8-6---|
G-------------------------------------------------------------|
D-------------------------------------------------------------|
A-------------------------------------------------------------|
E-------------------------------------------------------------|

 'all that you ride is free'
E--------------------------------------------------|
B-----------------------------10h13-10-8-----------|
G--------------------------------------------------|
D--------------------------------------------------|
A--------------------------------------------------|
E--------------------------------------------------|

 'you gotta let it be, oh yeah'
E---------------------------------------------|
B---------------------------------------------|
G---------------------------------------------|
D---------------------------------------------|
A---------------------------------------------|
E---------------------------------------------|

chorus

 'where i go'
E-----------------0---------------------------|
B-----------------6---------------------------|
G-----------------7---------------------------|
D---------------------------------------------|
A---------------------------------------------|
E---------------------------------------------|

 'i just don't know'
E-----------------------0---------------------|
B-----------------------6---------------------|
G---------------------------------------------|
D---------------------------------------------|
A---------------------------------------------|
E---------------------------------------------|

 'i got to, gotta, gotta take it slow
E-------------------------0-------------------|
B-------------------------6-------------------|
G---------------------------------------------|
D---------------------------------------------|
A---------------------------------------------|
E---------------------------------------------|

 'when i find my piece of mind'
E------------------0--------------------------|
B------------------6--------------------------|
G------------------7--------------------------|
D---------------------------------------------|
A---------------------------------------------|
E---------------------------------------------|
[ Tab from: http://www.guitartabs.cc/tabs/r/red_hot_chili_peppers/soul_to_squeeze_tab_ver_6.html ]
 'i'm gonna give you some of my good time'
E--0----0----0----0---0---0---------------------------|
B--6----6----6----6---6---6-------6-------------------|
G-----------------------------7-------6---------------|
D-----------------------------------------------------|
A-----------------------------------------------------|
E-----------------------------------------------------|

Solo

E-------------------------------------------------------------------|
B---------------------------------------------------------------13--|
G--12br(14)-10--12--12--10~-------------12b(14)-12b(14)-12b(14------|
D-------------------------------------------------------------------|
A-------------------------------------------------------------------|
E-------------------------------------------------------------------|

E---------------------------------------------------------------------|
B---------------------------------------------------------------------|
G-10--12--10--------10----------12br(14)-10--12--12--10br(12)---------|
D--------------10b(12)----------------------------------------10b(12)-|
A---------------------------------------------------------------------|
E---------------------------------------------------------------------|

E-------------------------------------------------------------|
B--------------------------13br(15)-10--13--10--8--6----------|
G--12b(14)-12b(14)-12b(14)------------------------------------|
D-------------------------------------------------------------|
A-------------------------------------------------------------|
E-------------------------------------------------------------|

 'yeah'
E---------------------------------------------|
B------13b(15)--------------------------------|
G---------------------------------------------|
D---------------------------------------------|
A---------------------------------------------|
E---------------------------------------------|

E--------------------------------------------------|
B----------13b(15)------------15\13--10--13b(15)---|
G--5b(7)-------------------------------------------|
D--------------------------------------------------|
A--------------------------------------------------|
E--------------------------------------------------|

E---------------------------------------------------------------------|
B---------------------------------------------13b(15)---10--13--10\6~-|
G----------------------------------------5b(7)------------------------|
D---------------------------------------------------------------------|
A---------------------------------------------------------------------|
E---------------------------------------------------------------------|

verse  (same chords: F C Dm Dm F C Gm7 F C Dm Dm F C Gm7)

 'it's bitter baby and it's very sweet'
E---------------------------------------------------|
B----------------------------------------13/15~-----|
G---------------------------------------------------|
D---------------------------------------------------|
A---------------------------------------------------|
E---------------------------------------------------|

 'i'm on a rollercoaster but i'm on my feet'
E-----------------------------------------------------|
B----------------------------------------------18-15~-|
G-----------------------------------------------------|
D-----------------------------------------------------|
A-----------------------------------------------------|
E-----------------------------------------------------|

 'take me to the river let me on your shore'
E------------------------------------------------------|
B--------------------------------------------13br(15)--|
G------------------------------------------------------|
D------------------------------------------------------|
A------------------------------------------------------|
E------------------------------------------------------|

 'I'll becoming back baby i'll becoming back for more'
E------------------------------------------------------|
B--------------------------10br(12)---8-----------6----|
G------------------------------------------------------|
D------------------------------------------------------|
A------------------------------------------------------|
E------------------------------------------------------|

 'doo doo doo doo dingle zing a dong bone
E---------------------------------------------|
B---------------------------------------------|
G---------------------------------------------|
D---------------------------------------------|
A---------------------------------------------|
E---------------------------------------------|

 'ba di ba da ba zumba crunga bong gone bad'
E---------------------------------------------|
B------------------------8b(10)-----------6~--|
G---------------------------------------------|
D---------------------------------------------|
A---------------------------------------------|
E---------------------------------------------|

 'like an apple gift but i went and never said my pleasures
E-----------------------------------------------------------|
B-----------------------------------------------------------|
G-----------------------------------------------------------|
D-----------------------------------------------------------|
A-----------------------------------------------------------|
E-----------------------------------------------------------|

 'i'm much better but i won't regret it never
E-----------------------------------------------|
B-----------------------------------------------|
G-----------------------------------------------|
D-----------------------------------------------|
A-----------------------------------------------|
E-----------------------------------------------|

chorus

      'where i go'
E---------------------------------------------|
B---------------------------------------------|
G-------12b(14)-------------------------------|
D---------------------------------------------|
A---------------------------------------------|
E---------------------------------------------|

 'i just don't know'
E---------------------------------------------|
B---------------------------------------------|
G-----------------------12\10~----------------|
D---------------------------------------------|
A---------------------------------------------|
E---------------------------------------------|

 'i got to, gotta, gotta take it slow'
E-----------------------------------------------------|
B-----------------------------------------------------|
G------------------------------------------10/12--10~-|
D-------------------------10b(12)---------------------|
A-----------------------------------------------------|
E-----------------------------------------------------|

 'when i find my piece of mind'
E---------------------------------------------|
B--------------13b(15)-13--10~----------------|
G---------------------------------------------|
D---------------------------------------------|
A---------------------------------------------|
E---------------------------------------------|

'i'm gonna give you some of my good time'
E---------------------------------------------|
B-----------------13b(15)-------------15------|
G---------------------------------------------|
D---------------------------------------------|
A---------------------------------------------|
E---------------------------------------------|

         'where i go'
E---------------------------------------------|
B-----------8b(10)----------------------------|
G---------------------------------------------|
D---------------------------------------------|
A---------------------------------------------|
E---------------------------------------------|

 'i just don't know'
E----------------------0----------------------|
B---8br(10)------6-----6----------------------|
G---------------------------------------------|
D---------------------------------------------|
A---------------------------------------------|
E---------------------------------------------|

 'i might end up somewhere in mexico'
E---------------------------------------------|
B-----------------6br(8)----------6-----------|
G-------------------------7br(9)----7---------|
D---------------------------------------------|
A---------------------------------------------|
E---------------------------------------------|

 'when i find my piece of mind'
E---------------------------------------------|
B-6br(8)--10------6br(8)---13---10------------|
G---------------------------------------------|
D---------------------------------------------|
A---------------------------------------------|
E---------------------------------------------|

 'i'm gonna keep it for the end of time'
E---------------------------------------------|
B---------------------------------------------|
G---------------------------------------------|
D---------------------------------------------|
A---------------------------------------------|
E---------------------------------------------|


email comments to d_register@yahoo.co.uk
Comments