Red Hot Chili Peppers - Soul To Squeeze Chords & Tabs

 

Soul To Squeeze Chords & Tabs

Red Hot Chili Peppers Chords & Tabs

Version: 5 Type: Tab 0 ratings
1 star 2 stars 3 stars 4 stars 5 stars
comments

Soul To Squeeze Tab

SOUL TO SQUEEZE by Red Hot Chili Peppers
transcribed by: "junkie"

Intro

e---------------------------------|-------------------------------0----------|
B-----------------1p0-------------|--------------------------0h2------0------|
G---------2------------2----------|--------2------------2-----------------2--|
D-----2------------------------2h4|-----2--------2---------------------------|
A--0-----------------------0------|--0--------0-----0------------------------|
E---------------------------------|------------------------------------------|

e---------------------------------|------------------------------------------|
B-----------------1p0-------------|------------------------------------------|
G---------2------------2----------|---------2--------------2-----------------|
D-----2------------------------2h4|-----2----------2-------------------------|
A--0------------------------0-----|--0----------0-----0----------------------|
E---------------------------------|-----------------------------3h5---3h5----|

[ Tab from: http://www.guitartabs.cc/tabs/r/red_hot_chili_peppers/soul_to_squeeze_tab_ver_5.html ]
e---------------------------------|-------------------------------0----------|
B-----------------1p0-------------|--------------------------0h2------0------|
G---------2------------2----------|--------2------------2-----------------2--|
D-----2------------------------2h4|-----2--------2---------------------------|
A--0-----------------------0------|--0--------0-----0------------------------|
E---------------------------------|------------------------------------------|


e---------------------------------|
B-----------------1p0-------------|
G---------2------------2----------|
D-----2------------------------2h4|
A--0-----------------------0------|
E---------------------------------|

then the solo...
e--3/5----3/5------8/10--10\8---5--5/8---5--|
B------------------------------------------6|
G-------------------------------------------|
D-------------------------------------------|
A-------------------------------------------|
E-------------------------------------------|

e---------------8/10----8/10--\8------------|
B--8-/10--10-----------------------10\---6--|
G-------------------------------------------|
D-------------------------------------------|
A-------------------------------------------|
E-------------------------------------------|

Then start the verse...
that's all guys,i'm quite not sure of this tabs and it's my first time 
to send guitar tabs in the net so if you have any comments or coorrections just email
me----red_hot_chilli_junkie99@ganja.com....enjoy!
Comments