Red Hot Chili Peppers - Soul To Squeeze Chords & Tabs

 

Soul To Squeeze Chords & Tabs

Red Hot Chili Peppers Chords & Tabs

Version: 2 Type: Bass Tab 0 ratings
1 star 2 stars 3 stars 4 stars 5 stars
comments

Soul To Squeeze Bass Tab

The Red Hot Chili Peppers
Soul to Squeeze
From various live and bonus albums and The Coneheads

Tabbed by pIRHANA

INTRO
G |-14-----14--14-16-14--------------------------
D |---14-16--16---------------------------
A |----------------------------------------------
E |---------------------5-5-5-5-5-5-5-5-5-----------------

VERSE
G |-------------------------------------------
D |-------------------0-2-3------------------
A |-----0-2-3-3---2-3------1----5-5---5--8---8---3------
E |-1-1-----------------------------5------5--------3----5-

VARIATION(TO THE VERSE)
G |--------------------------3-3-3-----------------
D |-------------------0-2-3------------------
A |-----0-2-3-3---2-3------1-------5-5---5--8---8---3------
E |-1-1--------------------------------5------5--------3----5-

***CHORUS 1***
G |---------------------------------------------------------------------------
D |--7-8-10----7---------------------------7-8-10----7---------------------------
A |-8-----------8-10-5-5-5-7-8-----10-9--8------------8-10-5-5-5-7-8--------------------
E |--------8------------------6-6-8--8-----------8-------------------5-5-6---

***CHORUS 2***
G |---------------------------------------------------------------------------
D |--7-8-10----7---------------------------7-8-10----10--8-7---------------------------
A |-8-----------8-10-5-5-5-7-8-----10-9-8--------------------8-5-5-5-7-8--------------------
E |--------8------------------6-6-8--------------8-----------------------5-5-6---
[ Tab from: http://www.guitartabs.cc/tabs/r/red_hot_chili_peppers/soul_to_squeeze_btab_ver_2.html ]
G |---------------------------
D |--------3-3----------------
A |-5-5-0-5-1--3-3-3-3-3-3-3-
E |---------------------------
###BRIDGE###


   |------------3 times----------------|        
G |--PH7---------------------------------|----PH7-------------------------------
D |----------------7h9-9-9----7h9-9-7-9--|--------------/10-10-8-7-------------
A |-5---0-3------7----------7------------|--5-----0-3--------------10--8/(0)----
E |--------------------------------------|--------------------------------------
                                                

***LAST CHORUS***
G |-------------------------------------------------10/12--10---------------8---------------------
D |--7-8-10--7h8p7-------------7-------------7-8-10-----------10------5-7-8---7-5-----------------
A |-8-------------8-10-5-5-5/8-------10-9--8--8-8-----------------5-8-------------8-5-5-5-7-8-----
E |--------8--------------------6-6-8--8------------------------------------------------------5-5-

G |---------10/12-10------------------------------------------------------------------
D |--7-8-10----------10--------5-7--/10-7~~~5-----------------------------------------
A |-8-8-8------------------5-8----------------8-5-5-5-7-8-------10--9----------------
E |-------------------------------------------------------6-6-8---8-------------------

G |-----------10/12-10---------------------------------------------||
D |---7-8-10------------10h12p10-8h10p8-7h8p7----------------------||
A |-8-----------------------------------------5-5-5-7-8------------||
E |-----------------------------------------------------5-6--3-1---||




Comments