Red Hot Chili Peppers - Soul To Squeeze Chords & Tabs

 

Soul To Squeeze Chords & Tabs

Red Hot Chili Peppers Chords & Tabs

Version: 1 Type: Bass Tab 0 ratings
1 star 2 stars 3 stars 4 stars 5 stars
comments

Soul To Squeeze Bass Tab

Song     : Soul To Squeeze
Band     : Red Hot Chili Peppers
Tabbed by: Girard Ordway

Mail     :realwgf@hotmail.com
Url      :www.george.cx/wgf


One of my favorite songs by rhcp, I kept seeing this tabbed incorrectly,
so here is the correct version to the best of my knowledge.
------------------------------
Incase your not experienced with music:
-------------------------------
%:repeat the last measure played, 2%: last 2 measures, etc.
-------------------------------
4
-:4 beats to a measure
4
-------------------------------
P:pop
S:slap
/ or \:slide
-------------------------------


Moderate Rock Tempo

    [Intro]:
|G |-/14-------14----14h16-14--|
4|D |-----14h16----16-----------|
-|A |---------------------------|
4|E |---------------------------|

    |-------------------|-------|-------|-------|-------|
    |-------------------|-------|-------|-------|-------|
    |-0\----------------|---%---|---%---|---%---|---%---|
    |---5-5-5-5-5-5-5-5-|-------|-------|-------|-------|


[Verse]:
|-------------------|---------------|-----------------------------|
|-------------------|---------------|-----------------------------|
|-------------------|--5-7-8--------|--5-5---5-8---8--------------|
|-1-1--3/5--8-8-7-8-|---------6-----|------5-----6---8\--3-6--h5\-|

|-------------------|---------------|-----------------------------|
|-------------------|---------8-8-8-|-----------------------------|
|-------------------|--5-7-8--------|--5-5---5-8---8--------------|
|-1-1--3-5--8-8-7-8-|--------6------|------5-----6---8\--3-6--h5\-|

["I've got a...."]
|-------------------|---------------|-----------------------------|
|-------------------|---------------|-----------------------------|
|-------------------|--5-7-8--------|--5-5---5-8---8--------------|
|-1-1--3-5--8-8-7-8-|--------6------|------5-----6---8\--3-6--h5\-|

|-------------------|---------------|--------------------------------------|
|-------------------|-------------8-|--------------------------------------|
|-----------------=-|--5-7-8--------|-5-5---5-8---8---10----------8--------|
|-1-1--3/5--8-8-7-8-|--------6------|-----5-----6---8----8-6--8h10--10--6\-|

|-------------------|----------------|-----------------------------|
|-------------------|----------8-8-8-|-----------------------------|
|-------------------|--5-7-8---------|--5-5---5-8---8--------------|
|-1-1--3-5--8-8-7-8-|--------6-------|------5-----6---8\--3-6--h5\-|

|--------------------|---------------|-----------------------------|
|--------------------|-----------5/8-|-----------------------------|
|--------------------|---5-7-8-------|--5-5---5-8---8--------------|
|-1-1--3-5--8-8-7-8--|---------6-----|------5-----6---8\--3-6--h5\-|


[Chorus]:
|-------------|------------|------------|------------------|
|---7--8-10---|----7-------|------------|------------------|
|-8-----------|------8\10--|--5-5-5-7-8-|-----------10---8-|
|-------------|-8----------|------------|-6-6--8h10----8---|

|------------|---------------|---------------|----------|
|----7--8-10-|---7-7h8p7-----|---------------|----------|
|-8~---------|----------8-10-|-5-5-5-5-5-7-8-|----------|
|------------|-8-------------|---------------|-5-5-5-6\-|


[Verse2]:
|-------------------|---------------|-----------------------------|
|-------------------|---------------|-----------------------------|
|-------------------|--5-7-8--------|--5-5---5-8---8--------------|
|-1-1--3-5--8-8-7-8-|--------6------|------5-----6---8\--3-6--h5\-|

|-------------------|---------------|-----------------------------|
|-------------------|---------------|-----------------------------|
|-------------------|--5-7-8--------|--5-5---5-8---8--------------|
|-1-1--3-5--8-8-7-8-|--------6------|------5-----6---8\--3-6--h5\-|

|-------------------|---------------|--------------------------------------|
|-------------------|---------------|--------------------------------------|
|-----------------=-|--5-7-8--------|-5-5---5-8---8---10----------8--------|
|-1-1--3/5--8-8-7-8-|--------6------|-----5-----6---8----8-6--8h10--10--6\-|


[Chorus2]:
|-------------|------------|------------|------------------|
|---7--8-10---|----7-------|------------|------------------|
|-8-----------|------8\10--|--5-5-5-7-8-|-----------10---8-|
|-------------|-8----------|------------|-6-6--8h10----8---|
[ Tab from: http://www.guitartabs.cc/tabs/r/red_hot_chili_peppers/soul_to_squeeze_btab.html ]
|------------|---------------|---------------|----------|
|----7--8-10-|----10--8-7-5--|---------------|----------|
|-8~---------|---------------|-5-5-5-5-5-7-8-|----------|
|------------|-8-------------|---------------|-5-5-5-6\-|


[GuitarSolo]:
|-------------------|---------------|-----------------------------|
|-------------------|---------8-8-8-|-----------------------------|
|-------------------|--5-7-8--------|--5-5---5-8---8--------------|
|-1-1--3-5--8-8-7-8-|--------6------|------5-----6---8\--3-6--h5\-|

|-------------------|---------------|-----------------------------|
|-------------------|---------------|-----------------------------|
|-------------------|--5-7-8--------|-5-5---5-8--8----------------|
|-1-1--3-5--8-8-7-8-|--------6------|-----5-----6---8-8-8-8-8-8-8-|

[Bridge]:
|----7--10--/12-------5-----5---5------7--10--/10-------5-----5---5-|
|--------8--/10---5h7---5h7---7------------8--/12---5h7---5h7---7---|
|-5---------------------------------5-------------------------------|
|-------------------------------------------------------------------|
   S  P  	   S   P S   P S P   S  P	     S   P S   P S P

|--------|----------|
|--------|----------|
|---2%---|----------|
|--------|5-5-5-6-6\|



[Verse4]:
|-------------------|---------------|-----------------------------|
|-------------------|---------------|-----------------------------|
|-------------------|--5-7-8--------|--5-5---5-8---8--------------|
|-1-1--3-5--8-8-7-8-|--------6------|------5-----6---8\--3-6--h5\-|

|-------------------|---------------|-----------------------------|
|-------------------|-----------8---|-----------------------------|
|-------------------|--5-7-8--------|--5-5---5-8---8--------------|
|-1-1--3-5--8-8-7-8-|--------6------|------5-----6---8\--3-6--h5\-|

|-------------------|---------------|-----------------------------|
|-------------------|----------88---|-----------------------------|
|-------------------|--5-7-8--------|-5-5---5-8---8---10----------|
|-1-1--3/5--8-8-7-8-|--------6------|-----5-----6---8----3-6-8-10-|

|-------------------|---------------|-----------------------------|
|-------------------|---------------|-----------------------------|
|-------------------|--5-7-8--------|--5-5---5-8---8--------------|
|-1-1--3-5--8-8-7-8-|--------6------|------5-----6---8\--3-6--h5\-|

|-------------------|---------------|--------------------------------------|
|-------------------|----------8----|--------------------------------------|
|-------------------|--5-7-8--------|-5-5---5-8---8---10----------8--------|
|-1-1--3/5--8-8-7-8-|--------6------|-----5-----6---8----8-6--8h10--10--6\-|


[Chorus3]:
|-----------|----------------|---------------------------------|
|---7--8-10-|---7--8-7-------|------------7--------------------|
|-8~--------|----------8-10/-|-5-5-5-7h8----------------10---8-|
|-----------|-8--------------|-------------6--5--8-8h10--------|

|---------------10h12p10-|--------------------------|
|---7---8---10-----------|-----------7-8-10-8-7-----|
|-8---8---8--------------|----7-8-10------------10\-|
|------------------------|--8-----------------------|

|-----------------|----------------|
|-----------------|----------------|
|-5-5-5-5-5-5-7-8-|----------------|
|-----------------|-5-5-5-6--6-6-6-|

|---------------10/12p10-|--------------------------|
|---7---8---10-----------|----------7-8/10-7h8------|
|-8---8---8--------------|---7-8-10-------------10\-|
|------------------------|-8------------------------|

|-----------------|------------------------|
|---------------7-|------------------------|
|-5-5-5-5-5-7h8---|-----------------10---8-|
|-----------------|-6-6-6-6-6--8h10----8---|

|------------10h12p10-|-----------------------------|
|---7-7-8-10----------|-----10-12-10--8-10-8--7-8-7-|
|-8-------------------|-----------------------------|
|---------------------|-8---------------------------|

|-----------------|----------------|
|--7---7---7------|----------------|
|-5-5-5-5-5-5-7-8-|----------------|
|-----------------|-5-5-5-6\---1---|

[Cool ending for when your giging in replace of the last measure]:
|-------------------------------------------1-3-3p1-3--------------|
|-------------------------------[3-1-----3-----------1-3-1-------3-|
|-5-5-5-5-5-5-7-8---------------------3-1-------------------3-1]---|
|-----------------5-5-5-6\--1------------------------------------1-|

[notes in brackets play as thrity second notes, while your
guitarist hangs on the last chord =]
----------------------------------------------------------

Comments