Red Hot Chili Peppers - Snow (hey Oh) Chords & Tabs

 

Snow (hey Oh) Chords & Tabs

Red Hot Chili Peppers Chords & Tabs

Version: 7 Type: Tab

Snow (hey Oh) Tab

   
Heres the main Guitar riff

Am                  F                  C                    G
E-------------------|-------------------|-------------------|-------------------|
B-----1---1h3p1---1-|-----1---1h3p1---2-|-------------------|-----3---3h5p3---3-|
G---2---2-------2---|---2---2-------2---|-----0---0h2p0---0-|---4---4-------4---|
D-2-----------------|-3-----------------|---2---2-------2---|-5-----------------|
A-------------------|-------------------|-3-----------------|-------------------|
E-------------------|-------------------|-------------------|-------------------|

  Am                  F                  C                   G
E-------------------|-------------------|-------------------|-------------------|
B-----1---1h3p1---1-|-----1---1h3p1---2-|-------------------|-------------------|
G---2---2-------2---|---2---2-------2---|-----0---0h2p0---0-|-----0---0h2p0---0-|
D-2-----------------|-3-----------------|---2---2-------2---|---2---2-------2---|
A-------------------|-------------------|-3-----------------|-------------------|
E-------------------|-------------------|-------------------|-3-----------------|

Heres the two main bass riffs as well
[ Tab from: http://www.guitartabs.cc/tabs/r/red_hot_chili_peppers/snow_hey_oh_tab_ver_7.html ]
  Am                  F                  C                   G
G-------------------|-------------------|-------------------|-------------------|
D--------------0--2-|-3-----------------|-------------2--3--|-5-----------------|
A-0-----------------|-------------------|-3-----------------|-------------------|
E-------------------|-------------------|-------------------|-------------------|

  Am                  F                  C                   G
G-------------------|-------------------|-------------------|-------------------|
D--------------0--2-|-3-----------------|-------------2--3--|-------------------|
A-0-----------------|-------------------|-3-----------------|----------3--------|
E-------------------|-------------------|-------------------|-3-----------------|

AND
  Am                  F                  C                   G
G-------------------|-------------------|-------------------|---------------------|
D-----------0---2---|-3---------2---0---|-----------2---3---|-5-------------------|
A-0-----------------|-------------------|-2-----------------|-----------3---2-----|
E-------------------|-------------------|-------------------|---------------------|

  Am                  F                  C                   G
G-------------------|-------------------|-------------------|---------------------|
D-----------0---2---|-3---------2---0---|-----------2---3---|---------------------|
A-0-----------------|-------------------|-2-----------------|-----------3---2-----|
E-------------------|-------------------|-------------------|-3-------------------|


This is from total scratch and my first tab, but i think it aint bad -Bergetron!!!!!!!!! 
Chili peppers rock!