Red Hot Chili Peppers - Snow (hey Oh) Chords & Tabs

 

Snow (hey Oh) Chords & Tabs

Red Hot Chili Peppers Chords & Tabs

Version: 3 Type: Tab 3 ratings
1 star 2 stars 3 stars 4 stars 5 stars
comments

Snow (hey Oh) Tab

Artist: Red Hot Chili Peppers
Song: Snow
Album: Stadium Arcadium (CD1)
Tabber: Pete (shred)
email: peteynut@gmail.com

When i heard this song i immediately wanted to play it, so i searched for some tabs but only found
one, and it was tuned half a step down and didnt quite sound right to me, so i tabbed it out myself
and here you go.

The main riff is just fast picking chords with some hammer-ons at the top.
The first notes (4's) in the first 2 scales don't really need to be played, so i have 2 versions of the first two bars of the song, pick which you like. 


0:00 - 00:04     Version 2 - Riff 1
e|----------------------------------------------------------------|
b|----------------------------------------------------------------|
G|-----4---4h6p4---4-----4---4h6p4---4----------------------------|
D|-------6-------6---------6-------6------------------------------|
A|---6-----------------7------------------------------------------|
E|-4-----------------4--------------------------------------------|

/VERSE\
0:00 - 00:04
e|----------------------------------------------------------------|
b|----------------------------------------------------------------|
G|-----6---6-4h6p4---4---6---6-4h6p4---4--------------------------|
D|-------4---------6-------4---------6----------------------------|
A|---6-----------------7------------------------------------------|
E|----------------------------------------------------------------|

0:04 - 0:06 
e|----------------------------------------------------------------|
b|----------------------------------------------------------------|
G|------------------------6---6-6h8p6---6-------------------------|
D|---4---4-4h6p4---4--------8---------8---------------------------|
A|-----4---------6-----/6-----------------------------------------|
E|-2--------------------------------------------------------------|

0:06 - 0:08 
e|----------------------------------------------------------------|
b|----------------------------------------------------------------|
G|-----6---6-4h6p4---4---6---6-4h6p4---4--------------------------|
D|-------4---------6-------4---------6----------------------------|
A|---6-----------------7------------------------------------------|
E|----------------------------------------------------------------|
[ Tab from: http://www.guitartabs.cc/tabs/r/red_hot_chili_peppers/snow_hey_oh_tab_ver_3.html ]
0:08 - 0:10
e|----------------------------------------------------------------|
b|----------------------------------------------------------------|
G|----------------------------------------------------------------|
D|---4---4-4h6p4---4---4---4-4h6p4---4----------------------------|
A|-----6---------6-------4---------6------------------------------|
E|-7-----------------2--------------------------------------------|

Keep Repeating until 1:33

/BRIDGE\
1:33 - 1:50 
You figure out strumming because i dunno how i'd show it.
e|-9-9-9-9-9-9-11-11-11-11-11-11-11-11-11-9-9-9-9-9---------------|
b|-9-9-9-9-9-9-11-12-12-12-12-12-12-12-12-9-9-9-9-9---------------|
G|-9-9-9-9-9-9-11-13-13-13-13-13-13-13-13-9-9-9-9-9---------------|
D|-9-9-9-9-9-9-11-13-13-13-13-13-13-13-13-9-9-9-9-9---------------|
A|-7-7-7-7-7-7-9--11-11-11-11-11-11-11-11-7-7-7-7-7---------------|
E|----------------------------------------------------------------|
				   ^^^^^^^^^^
                         e|----11-9--------------|
		         b|---------12-11-9------|
Theres a little descend here overdubbed


/CHORUS\
1:50 - 2:22 w/Slight Distortion
Now this is a tad tricky, because theres been alot of over dubbing in this so i've just got the fusion of them into bar chords. 
Again you guess the strumming.
e|-2-2-2-2-2-2-2-2-4-4-4-4----------------------------------------|
b|-2-2-2-2-2-2-2-2-4-4-4-4----------------------------------------|
G|-4-4-4-4-3-3-3-3-6-6-6-6------Repeat-until-2:22-----------------|
D|-4-4-4-4-4-4-4-4-6-6-6-6----------------------------------------|
A|-2-2-2-2-4-4-4-4-4-4-4-4----------------------------------------|
E|-2-2-2-2-2-2-2-2-4-4-4-4----------------------------------------|

2:22 - 3:10
Play the /VERSE\ riffs.

3:10 - 3:22
Play the /BRIDGE\, but this time theres an overdub with distortion so choose which you want to do.

3:22 - End.
Play the /Chorus\ the whole way lol.

Outro
Just bend your own little ending.
e|--9bubdbu-------------------------------------------------------|
b|----------------------------------------------------------------|
G|----------------------------------------------------------------|
D|----------------------------------------------------------------|
A|----------------------------------------------------------------|
E|----------------------------------------------------------------|

Thanks and enjoy playing, any questions or feedback email me at peteynut@gmail.com,
or add me on msn at knowall88@hotmail.com		
Comments