Red Hot Chili Peppers - Snow (hey Oh) Chords & Tabs

 

Snow (hey Oh) Chords & Tabs

Red Hot Chili Peppers Chords & Tabs

Version: 2 Type: Tab 4 ratings
1 star 2 stars 3 stars 4 stars 5 stars
comments

Snow (hey Oh) Tab

Red Hot Chili Peppers - Snow (Hey Oh)
Song Length: 5 Minutes 35 Seconds
Tuning: EADGBE

Intro. Play four times. 
E|-----------------------------------|-------------------------------------|
B|-----------------------------------|-------------------------------------|
G|-----4---4h6h4---4-----4---4h6h4---|-------------------------6---6h8h6---|
D|---6---6-------6-----6---6-------6-|-----4---4h6h4---4-----8---8-------8-|
A|-6-----------------7---------------|---6---6-------6---6/9---------------|
E|-----------------------------------|-7-----------------------------------|

Verse 1. Repeat untril bridge.
E|-----------------------------------|-------------------------------------|
B|-----------------------------------|-------------------------------------|
G|-----4---4h6h4---4-----4---4h6h4---|-------------------------6---6h8h6---|
D|---6---6-------6-----6---6-------6-|-----4---4h6h4---4-----8---8-------8-|
A|-6-----------------7---------------|---6---6-------6---6/9---------------|
E|-----------------------------------|-7-----------------------------------|

Bridge.
E|-7----7----7---7----7---7---7----7-|-7----7----7---7----7---7---7-----9--|
B|-9----9----9---9----9---9---9----9-|-9----9----9---9----9---9---9-----11-|
G|-8----8----8---8----8---8---8----8-|-8----8----8---8----8---8---8-----11-|
D|-9----9----9---9----9---9---9----9-|-9----9----9---9----9---9---9-----11-|
A|-----------------------------------|-------------------------------------|
E|-----------------------------------|-------------------------------------|

E|-11---11---11--11--11--11--11--11--|-11---11---11--11--11--9---9---9-----|
B|-12---12---12--12--12--12--12--12--|-12---12---12--12--12--11--11--11----|
G|-13---13---13--13--13--13--13--13--|-13---13---13--13--13--11--11--11----|
D|-13---13---13--13--13--13--13--13--|-13---13---13--13--13--11--11--11----|
A|-----------------------------------|-------------------------------------|
E|-----------------------------------|-------------------------------------|

E|-7----7----7---7----7---7---7----7-|-7-----7---7---7----7---7---7----7---|
B|-9----9----9---9----9---9---9----9-|-9-----9---9---9----9---9---9----9---|
G|-8----8----8---8----8---8---8----8-|-8-----8---8---8----8---8---8----8---|
D|-9----9----9---9----9---9---9----9-|-9-----9---9---9----9---9---9----9---|
A|-----------------------------------|-------------------------------------|
E|-----------------------------------|-------------------------------------|


Chorus. Repeat until verse.
E|-7----7----7----7---7---7---7---7--|-6----6----6----6----6---6---6---6---|
B|-7----7----7----7---7---7---7---7--|-7----7----7----7----7---7---7---7---|
G|-8----8----8----8---8---8---8---8--|-8----8----8----8----8---8---8---8---|
D|-9----9----9----9---9---9---9---9--|-8----8----8----8----8---8---8---8---|
A|-9----9----9----9---9---9---9---9--|-------------------------------------|
E|-----------------------------------|-------------------------------------|

E|-11---11---11--11--11--11--11--11--|-11---11---11---11--11--11--11--11---|
B|-12---12---12--12--12--12--12--12--|-12---12---12---12--12--12--12--12---|
G|-13---13---13--13--13--13--13--13--|-13---13---13---13--13--13--13--13---|
D|-------------------13--13--13--13--|-13---13---13---13--13--13--13--13---|
A|-----------------------------------|-11---11---11---11--11--11--11--11---|
E|-----------------------------------|--------------------11--11--11--11---|

Verse 2. Repeat until bridge.
E|-----------------------------------|-------------------------------------|
B|-----------------------------------|-------------------------------------|
G|-----4---4h6h4---4-----4---4h6h4---|-------------------------6---6h8h6---|
D|---6---6-------6-----6---6-------6-|-----4---4h6h4---4-----8---8-------8-|
A|-6-----------------7---------------|---6---6-------6---6/9---------------|
E|-----------------------------------|-7-----------------------------------|
[ Tab from: http://www.guitartabs.cc/tabs/r/red_hot_chili_peppers/snow_hey_oh_tab_ver_2.html ]
Bridge.
E|-7----7----7---7----7---7---7----7-|-7----7----7---7----7---7---7-----9--|
B|-9----9----9---9----9---9---9----9-|-9----9----9---9----9---9---9-----11-|
G|-8----8----8---8----8---8---8----8-|-8----8----8---8----8---8---8-----11-|
D|-9----9----9---9----9---9---9----9-|-9----9----9---9----9---9---9-----11-|
A|-----------------------------------|-------------------------------------|
E|-----------------------------------|-------------------------------------|

E|-11---11---11--11--11--11--11--11--|-11---11---11--11--11--9---9---9-----|
B|-12---12---12--12--12--12--12--12--|-12---12---12--12--12--11--11--11----|
G|-13---13---13--13--13--13--13--13--|-13---13---13--13--13--11--11--11----|
D|-13---13---13--13--13--13--13--13--|-13---13---13--13--13--11--11--11----|
A|-----------------------------------|-------------------------------------|
E|-----------------------------------|-------------------------------------|

E|-7----7----7---7----7---7---7----7-|-7-----7---7---7----7---7---7----7---|
B|-9----9----9---9----9---9---9----9-|-9-----9---9---9----9---9---9----9---|
G|-8----8----8---8----8---8---8----8-|-8-----8---8---8----8---8---8----8---|
D|-9----9----9---9----9---9---9----9-|-9-----9---9---9----9---9---9----9---|
A|-----------------------------------|-------------------------------------|
E|-----------------------------------|-------------------------------------|

Chorus. Repeat until outro/solo.
E|-7----7----7----7---7---7---7---7--|-6----6----6----6----6---6---6---6---|
B|-7----7----7----7---7---7---7---7--|-7----7----7----7----7---7---7---7---|
G|-8----8----8----8---8---8---8---8--|-8----8----8----8----8---8---8---8---|
D|-9----9----9----9---9---9---9---9--|-8----8----8----8----8---8---8---8---|
A|-9----9----9----9---9---9---9---9--|-------------------------------------|
E|-----------------------------------|-------------------------------------|

E|-11---11---11--11--11--11--11--11--|-11---11---11---11--11--11--11--11---|
B|-12---12---12--12--12--12--12--12--|-12---12---12---12--12--12--12--12---|
G|-13---13---13--13--13--13--13--13--|-13---13---13---13--13--13--13--13---|
D|-------------------13--13--13--13--|-13---13---13---13--13--13--13--13---|
A|-----------------------------------|-11---11---11---11--11--11--11--11---|
E|-----------------------------------|--------------------11--11--11--11---|

Outro/solo. (With distortion)
E|-----------------------------------|-------------------------------------|
B|-7---------------7--------7--------|-11--------------11-------11---------|
G|-9b11------------9b11-----9b11-----|-13b15-----------13b15----13b15------|
D|-----------------------------------|-------------------------------------|
A|-----------------------------------|-------------------------------------|
E|-----------------------------------|-------------------------------------|

E|-16--------------16-------16-------|-16------------16-------16----16-----|
B|-19b21-----------19b21----19b21----|-19b21---------19b21----19b21-19b21--|
G|-----------------------------------|-------------------------------------|
D|-----------------------------------|-------------------------------------|
A|-----------------------------------|-------------------------------------|
E|-----------------------------------|-------------------------------------|

E|-----------------------------------|-------------------------------------|
B|-7---------------7--------7--------|-11--------------11-------11---------|
G|-9b11------------9b11-----9b11-----|-13b15-----------13b15----13b15------|
D|-----------------------------------|-------------------------------------|
A|-----------------------------------|-------------------------------------|
E|-----------------------------------|-------------------------------------|

E|-----------------------------------|
B|-9---------------------------------|
G|-11b13-----------------------------|
D|-----------------------------------|
A|-----------------------------------|
E|-----------------------------------|

Good Luck
Sam Hands x
Comments