Red Hot Chili Peppers - Snow (hey Oh) Chords & Tabs

 

Snow (hey Oh) Chords & Tabs

Red Hot Chili Peppers Chords & Tabs

Version: 1 Type: Tab 6 ratings
1 star 2 stars 3 stars 4 stars 5 stars
comments

Snow (hey Oh) Tab

Intro                                                                      x4
||-----------------------------------|-------------------------------------||
||-----------------------------------|-------------------------------------||
|*-----4---4h6p4---4-----4---4h6p4---|-------------------------6---6h8p6---*|
|*---6---6-------6-----6---6-------6-|-----4---4h6p4---4-----8---8-------8-*|
||-6-----------------7---------------|---6---6-------6---6/9---------------||
||-----------------------------------|-7-----------------------------------||


Verse 1                                                                    x4
||-----------------------------------|-------------------------------------||
||-----------------------------------|-------------------------------------||
|*-----4---4h6p4---4-----4---4h6p4---|-------------------------6---6h8p6---*|
|*---6---6-------6-----6---6-------6-|-----4---4p6h4---4-----8---8-------8-*|
||-6-----------------7---------------|---6---6-------6---6/9---------------||
||-----------------------------------|-7-----------------------------------||
                          


Bridge
|-7-x-7-7-7-7-7-7-7-7-7-7-7-7-7-7-|-7-7-7-7-7-7-7-7-7-7-7-7-7-7-9--9--|
|-9-x-9-9-9-9-9-9-9-9-9-9-9-9-9-9-|-9-9-9-9-9-9-9-9-9-9-9-9-9-9-11-11-|
|-8-x-8-8-8-8-8-8-8-8-8-8-8-8-8-8-|-8-8-8-8-8-8-8-8-8-8-8-8-8-8-11-11-|
|-9-x-9-9-9-9-9-9-9-9-9-9-9-9-9-9-|-9-9-9-9-9-9-9-9-9-9-9-9-9-9-11-11-|
|---------------------------------|-----------------------------------|
|---------------------------------|-----------------------------------|

|-11-11-11-11-11-11-11-11-11-11-11-11-11-11-11----|
|-12-12-12-12-12-12-12-12-12-12-12-12-12-12-12----|
|-13-13-13-13-13-13-13-13-13-13-13-13-13-13-13----|
|-------------------------------------------------|
|-------------------------------------------------|
|-------------------------------------------------|

|-11-11-11-11-11-11-11-11-11-11-11-11-11-11-9--9--|
|-12-12-12-12-12-12-12-12-12-12-12-12-12-12-11-11-|
|-13-13-13-13-13-13-13-13-13-13-13-13-13-13-11-11-|
|-------------------------------------------------|
|-------------------------------------------------|
|-------------------------------------------------|

|-7-x-7-7-7-7-7-7-7-7-7-7-7-7-7-7-|-7-7-7-7-7-7-7-7-7-7-7-7-7-7-9--9--|
|-9-x-9-9-9-9-9-9-9-9-9-9-9-9-9-9-|-9-9-9-9-9-9-9-9-9-9-9-9-9-9-11-11-|
|-8-x-8-8-8-8-8-8-8-8-8-8-8-8-8-8-|-8-8-8-8-8-8-8-8-8-8-8-8-8-8-11-11-|
|-9-x-9-9-9-9-9-9-9-9-9-9-9-9-9-9-|-9-9-9-9-9-9-9-9-9-9-9-9-9-9-11-11-|
|---------------------------------|-----------------------------------|
|---------------------------------|-----------------------------------|


Chorus
||-7-7-7-7-7-7-7-7-7-7-7-7-7-7-7-7-|-6-6-6-6-6-6-6-6-6-6-6-6-6-6-6-6-|
||-7-7-7-7-7-7-7-7-7-7-7-7-7-7-7-7-|-7-7-7-7-7-7-7-7-7-7-7-7-7-7-7-7-|
|*-8-8-8-8-8-8-8-8-8-8-8-8-8-8-8-8-|-8-8-8-8-8-8-8-8-8-8-8-8-8-8-8-8-|
|*-9-9-9-9-9-9-9-9-9-9-9-9-9-9-9-9-|-8-8-8-8-8-8-8-8-8-8-8-8-8-8-8-8-|
||-9-9-9-9-9-9-9-9-9-9-9-9-9-9-9-9-|---------------------------------|
||---------------------------------|---------------------------------|

|-11-11-11-11-11-11-11-11-11-11-11-11-11-11-11-|
|-12-12-12-12-12-12-12-12-12-12-12-12-12-12-12-|
|-13-13-13-13-13-13-13-13-13-13-13-13-13-13-13-|
|----------------------------------------------|
|----------------------------------------------|
|----------------------------------------------|
                                                  x4
|-11-11-11-11-11-11-11-11-11-11-11-11-11-11-11-11-||
|-12-12-12-12-12-12-12-12-12-12-12-12-12-12-12-12-||
|-13-13-13-13-13-13-13-13-13-13-13-13-13-13-13-13-*|
|-13-13-13-13-13-13-13-13-13-13-13-13-13-13-13-13-*|
|-11-11-11-11-11-11-11-11-11-11-11-11-11-11-11-11-||
|-------------------------11-11-11-11-11-11-11-11-||





Verse 2                                                                    x4
||-----------------------------------|-------------------------------------||
||-----------------------------------|-------------------------------------||
|*-----4---4h6p4---4-----4---4h6p4---|-------------------------6---6h8p6---*|
|*---6---6-------6-----6---6-------6-|-----4---4h6p4---4-----8---8-------8-*|
||-6-----------------7---------------|---6---6-------6---6/9---------------||
||-----------------------------------|-7-----------------------------------||
                          


[ Tab from: http://www.guitartabs.cc/tabs/r/red_hot_chili_peppers/snow_hey_oh_tab.html ]
Bridge
|-7-x-7-7-7-7-7-7-7-7-7-7-7-7-7-7-|-7-7-7-7-7-7-7-7-7-7-7-7-7-7-9--9--|
|-9-x-9-9-9-9-9-9-9-9-9-9-9-9-9-9-|-9-9-9-9-9-9-9-9-9-9-9-9-9-9-11-11-|
|-8-x-8-8-8-8-8-8-8-8-8-8-8-8-8-8-|-8-8-8-8-8-8-8-8-8-8-8-8-8-8-11-11-|
|-9-x-9-9-9-9-9-9-9-9-9-9-9-9-9-9-|-9-9-9-9-9-9-9-9-9-9-9-9-9-9-11-11-|
|---------------------------------|-----------------------------------|
|---------------------------------|-----------------------------------|

|-11-11-11-11-11-11-11-11-11-11-11-11-11-11-11----|
|-12-12-12-12-12-12-12-12-12-12-12-12-12-12-12----|
|-13-13-13-13-13-13-13-13-13-13-13-13-13-13-13----|
|-------------------------------------------------|
|-------------------------------------------------|
|-------------------------------------------------|

|-11-11-11-11-11-11-11-11-11-11-11-11-11-11-9--9--|
|-12-12-12-12-12-12-12-12-12-12-12-12-12-12-11-11-|
|-13-13-13-13-13-13-13-13-13-13-13-13-13-13-11-11-|
|-------------------------------------------------|
|-------------------------------------------------|
|-------------------------------------------------|

|-7-x-7-7-7-7-7-7-7-7-7-7-7-7-7-7-|-7-7-7-7-7-7-7-7-7-7-7-7-7-7-9--9--|
|-9-x-9-9-9-9-9-9-9-9-9-9-9-9-9-9-|-9-9-9-9-9-9-9-9-9-9-9-9-9-9-11-11-|
|-8-x-8-8-8-8-8-8-8-8-8-8-8-8-8-8-|-8-8-8-8-8-8-8-8-8-8-8-8-8-8-11-11-|
|-9-x-9-9-9-9-9-9-9-9-9-9-9-9-9-9-|-9-9-9-9-9-9-9-9-9-9-9-9-9-9-11-11-|
|---------------------------------|-----------------------------------|
|---------------------------------|-----------------------------------|



Chorus
||-7-7-7-7-7-7-7-7-7-7-7-7-7-7-7-7-|-6-6-6-6-6-6-6-6-6-6-6-6-6-6-6-6-|
||-7-7-7-7-7-7-7-7-7-7-7-7-7-7-7-7-|-7-7-7-7-7-7-7-7-7-7-7-7-7-7-7-7-|
|*-8-8-8-8-8-8-8-8-8-8-8-8-8-8-8-8-|-8-8-8-8-8-8-8-8-8-8-8-8-8-8-8-8-|
|*-9-9-9-9-9-9-9-9-9-9-9-9-9-9-9-9-|-8-8-8-8-8-8-8-8-8-8-8-8-8-8-8-8-|
||-9-9-9-9-9-9-9-9-9-9-9-9-9-9-9-9-|---------------------------------|
||---------------------------------|---------------------------------|

|-11-11-11-11-11-11-11-11-11-11-11-11-11-11-11-|
|-12-12-12-12-12-12-12-12-12-12-12-12-12-12-12-|
|-13-13-13-13-13-13-13-13-13-13-13-13-13-13-13-|
|----------------------------------------------|
|----------------------------------------------|
|----------------------------------------------|
                                                  x4
|-11-11-11-11-11-11-11-11-11-11-11-11-11-11-11-11-||
|-12-12-12-12-12-12-12-12-12-12-12-12-12-12-12-12-||
|-13-13-13-13-13-13-13-13-13-13-13-13-13-13-13-13-*|
|-13-13-13-13-13-13-13-13-13-13-13-13-13-13-13-13-*|
|-11-11-11-11-11-11-11-11-11-11-11-11-11-11-11-11-||
|-------------------------11-11-11-11-11-11-11-11-||




Outro/solo (with distortion) With chorus Chords.
|--------------------------------|------------------------------------|
|-7---------------7--------7-----|--11--------------11-------11-------|
|-9b11------------9b11-----9b11--|--13b15-----------13b15----13b15----|
|--------------------------------|------------------------------------|
|--------------------------------|------------------------------------|
|--------------------------------|------------------------------------|

|-16-------------16-------16-----|--16-----------16-------16----16----|
|-19b21----------19b21----19b21--|--19b21--------19b21----19b21-19b21-|
|--------------------------------|------------------------------------|
|--------------------------------|------------------------------------|
|--------------------------------|------------------------------------|
|--------------------------------|------------------------------------|

|--------------------------------|------------------------------------|
|-7---------------7--------7-----|--11--------------11-------11-------|
|-9b11------------9b11-----9b11--|--13b15-----------13b15----13b15----|
|--------------------------------|------------------------------------|
|--------------------------------|------------------------------------|
|--------------------------------|------------------------------------|

|--------------------------------|------------------------------------|
|-9------------------------------|------------------------------------|
|-11b13--------------------------|------------------------------------|
|--------------------------------|------------------------------------|
|--------------------------------|------------------------------------|
|--------------------------------|------------------------------------|
Comments