Red Hot Chili Peppers - Snow (hey Oh) Chords & Tabs

 

Snow (hey Oh) Chords & Tabs

Red Hot Chili Peppers Chords & Tabs

Version: 4 Type: Bass Tab

Snow (hey Oh) Bass Tab

   
Intro/ Verse Part 1
G|---------------------|
D|---------------------|
A|----4-6-7------6-7-9-|
E|-4----------7--------|

G|-----------------------|
D|-----------------------|
A|----4-6-7------6-7-9---|
E|-4----------7--------9-|

G|---------------------|
D|---------------------|
A|----4-6-7------6-7-9-|
E|-4----------7--------|

Intro/ Verse Part 2
G|------------------------|
D|----------------------9-|
A|----4-6-7------6-7-9----|
E|-4----------7-----------|

G|---------------------|
D|---------------------|
A|----4-6-7------6-7-9-|
E|-4----------7--------|

G|-------------------------|
D|-------------------------|
A|----4-6-7------6-7-9-----|
E|-4----------7--------7-6-|

Intro/ Verse Part 3
G|-------------------------|
D|----------------------9\-|
A|----4-6-7------6-7-9-----|
E|-4----------7------------|

Chorus
G|----------------------------------------|
D|----------------------------------------|
A|-----4--6--7---6---------6--7--9--------|
E|-4----------------9--7-------------7--6-|

G|---------------------------------|
D|---------------------------------|
A|-----4--6--7---6-----------------|
E|-4----------------9--7---6--4--2-|
[ Tab from: http://www.guitartabs.cc/tabs/r/red_hot_chili_peppers/snow_hey_oh_btab_ver_4.html ]
G|----------------------------------------|
D|----------------------------------------|
A|-----4--6--7---6---------6--7--9--------|
E|-4----------------9--7-------------7--6-|

G|---------------------------------|
D|---------------------------------|
A|-----4--6--7---6-----------------|
E|-4----------------9--7---6--4--2-|

Breakdown Part 1
G|---------------------------------|
D|---------------------------------|
A|---------------------------------|
E|-4-4-4-4-4-4-4-4-4-4-4-4-4-4-6-6-|

G|---------------------------------|
D|---------------------------------|
A|---------------------------------|
E|-7-7-7-7-7-7-7-7-7-7-7-7-7-7-7-7-|

G|---------------------------------|
D|---------------------------------|
A|---------------------------------|
E|-4-4-4-4-4-4-4-4-4-4-4-4-4-4-4-4-|

Breakdown Part 2/ Outro
G|---------------------------------|
D|---------------------------------|
A|---------------------------------|
E|-7-7-7-7-7-7-7-7-4-4-4-4-4-4-4-4-|

G|---------------------------------|
D|---------------------------------|
A|---------------------------------|
E|-9-9-9-9-9-9-9-9-9-9-9-9-9-9-9-9-|



Intro Part 1
Intro Part 2
Chorus
Verse Part 1
Verse Part 3
Chorus
Breakdown Part 1
Breakdown Part 2(x4)
Verse Part 1
Verse Part 2
Chorus
Breakdown Part 1
Outro(x14)