Red Hot Chili Peppers - Snow (hey Oh) Chords & Tabs

 

Snow (hey Oh) Chords & Tabs

Red Hot Chili Peppers Chords & Tabs

Version: 1 Type: Bass Tab 3 ratings
1 star 2 stars 3 stars 4 stars 5 stars
comments

Snow (hey Oh) Bass Tab

   
Song: Snow ( (Hey Oh))
Artist: Red Hot Chili Peppers
Album: Stadium Arcadium
Tabbed by: Derek5272

G|-----------------------------------
D|---------------4---------------4---
A|---4-6-7---6-7-----4-6-7---6-7-----
E|-4-------7-------4-------7-------7-

G|-----------------------------------
D|---------------4---------------4-6-
A|---4-6-7---6-7-----4-6-7---6-7-----
E|-4-------7-------4-------7---------

G|-------------------------------------
D|---------------4---------------4-----
A|---4-6-7---6-7-----4-6-7---6-7-------
E|-4-------7-------4-------7-------7-6-

G|-------------------------------------------------
D|-------------------4-----------------------------
A|---4-6-7-6-4---6-7---------4-6-7-6-4-------------
E|-4-----------7-------7-6-4-----------7-6-4-2-4-6-

G|-----------------------------------------------
D|-------------------4---------------------------
A|---4-6-7-6-4---6-7---------4-6-7-6-4-----------
E|-4-----------7-------7-6-4-----------7-6-4-2-2-

G|-----------------------------------
D|---------------4---------------4---
A|---4-6-7---6-7-----4-6-7---6-7-----
E|-4-------7-------4-------7-------7-

G|-------------------------------------
D|---------------4---------------4-11\-
A|---4-6-7---6-7-----4-6-7---6-7-------
E|-4-------7-------4-------7-----------

G|-------------------------------------------------
D|-------------------4-----------------------------
A|---4-6-7-6-4---6-7---------4-6-7-6-4-------------
E|-4-----------7-------7-6-4-----------7-6-4-2-4-6-

G|-----------------------------------------------
D|-------------------4---------------------------
A|---4-6-7-6-4---6-7---------4-6-7-6-4-----------
E|-4-----------7-------7-6-4-----------7-6-4-2-2-

G|---------------------------------------------
D|-------4-6-6-6-4-----------------------------
A|-7-7-7-----------7-7-7-7-7-7-7-7-7-7-7-7-7-7-
E|---------------------------------------------

G|-----------------------------------------
D|-----------------------------------------
A|-----------------------------------------
E|-7-7-7-7-7-7-7-7-7-7-2-2-2-2-2-2-2-2-2-2-

G|-----------------------------------------
D|-----------------------------------------
A|-4-4-4-4-4-4-4-4-4-4-4-4-4-4-4-4-4-4-4-4-
E|-----------------------------------------

G|-----------------------------------------
D|---------------------4-4-4-4-4-4-4-4-4-4-
A|-----------------------------------------
E|-7-7-7-7-7-7-7-7-7-7---------------------

G|-----------------------------------------
D|-----------------------------------------
A|-4-4-4-4-4-4-4-4-4-4-4-4-4-4-4-4-4-4-4-4-
E|-----------------------------------------

G|-----------------------------------------
D|-----------------------------------------
A|-----------------------------------------
E|-7-7-7-7-7-7-7-7-7-7-2-2-2-2-2-2-2-2-2-2-

G|-----------------------------------------
D|-----------------------------------------
A|-4-4-4-4-4-4-4-4-4-4-4-4-4-4-4-4-4-4-4-4-
E|-----------------------------------------

G|-----------------------------------------
D|---------------------4-4-4-4-4-4-4-4-4-4-
A|-----------------------------------------
E|-7-7-7-7-7-7-7-7-7-7---------------------

G|-----------------------------------------
D|-----------------------------------------
A|-4-4-4-4-4-4-4-4-4-4-4-4-4-4-4-4-4-4-4-4-
E|-----------------------------------------

G|-----------------------------------
D|---------------4---------------4---
A|---4-6-7---6-7-----4-6-7---6-7-----
E|-4-------7-------4-------7-------7-

G|-------------------------------------
D|---------------4---------------4-6-6-
A|---4-6-7---6-7-----4-6-7---6-7-------
E|-4-------7-------4-------7-----------

G|-------------------------------------
D|---------------4---------------4-----
A|---4-6-7---6-7-----4-6-7---6-7-------
E|-4-------7-------4-------7-------7-6-

G|-------------------------------------------------
D|-------------------4-----------------------------
A|---4-6-7-6-4---6-7---------4-6-7-6-4-------------
E|-4-----------7-------7-6-4-----------7-6-4-2-4-6-

G|-----------------------------------------------
D|-------------------4---------------------------
A|---4-6-7-6-4---6-7---------4-6-7-6-4-----------
E|-4-----------7-------7-6-4-----------7-6-4-2-2-

G|---------------------------------------------
D|-------4-6-6-6-4-----------------------------
A|-7-7-7-----------7-7-7-7-7-7-7-7-7-7-7-7-7-7-
E|---------------------------------------------

G|-----------------------------------------
D|-----------------------------------------
A|-----------------------------------------
E|-7-7-7-7-7-7-7-7-7-7-2-2-2-2-2-2-2-2-2-2-

G|-----------------------------------------
D|-----------------------------------------
A|-4-4-4-4-4-4-4-4-4-4-4-4-4-4-4-4-4-4-4-4-
E|-----------------------------------------
[ Tab from: http://www.guitartabs.cc/tabs/r/red_hot_chili_peppers/snow_hey_oh_btab.html ]
G|-----------------------------------------
D|---------------------4-4-4-4-4-4-4-4-4-4-
A|-----------------------------------------
E|-7-7-7-7-7-7-7-7-7-7---------------------

G|-----------------------------------------
D|-----------------------------------------
A|-4-4-4-4-4-4-4-4-4-4-4-4-4-4-4-4-4-4-4-4-
E|-----------------------------------------

G|-----------------------------------------
D|-----------------------------------------
A|-----------------------------------------
E|-7-7-7-7-7-7-7-7-7-7-2-2-2-2-2-2-2-2-2-2-

G|-----------------------------------------
D|-----------------------------------------
A|-4-4-4-4-4-4-4-4-4-4-4-4-4-4-4-4-4-4-4-4-
E|-----------------------------------------

G|-----------------------------------------
D|---------------------4-4-4-4-4-4-4-4-4-4-
A|-----------------------------------------
E|-7-7-7-7-7-7-7-7-7-7---------------------

G|-----------------------------------------
D|-----------------------------------------
A|-4-4-4-4-4-4-4-4-4-4-4-4-4-4-4-4-4-4-4-4-
E|-----------------------------------------

G|-----------------------------------------
D|-----------------------------------------
A|-----------------------------------------
E|-7-7-7-7-7-7-7-7-7-7-2-2-2-2-2-2-2-2-2-2-

G|-----------------------------------------
D|-----------------------------------------
A|-4-4-4-4-4-4-4-4-4-4-4-4-4-4-4-4-4-4-4-4-
E|-----------------------------------------

G|-----------------------------------------
D|---------------------4-4-4-4-4-4-4-4-4-4-
A|-----------------------------------------
E|-7-7-7-7-7-7-7-7-7-7---------------------

G|-----------------------------------------
D|-----------------------------------------
A|-4-4-4-4-4-4-4-4-4-4-4-4-4-4-4-4-4-4-4-4-
E|-----------------------------------------

G|-----------------------------------------
D|-----------------------------------------
A|-----------------------------------------
E|-7-7-7-7-7-7-7-7-7-7-2-2-2-2-2-2-2-2-2-2-

G|-----------------------------------------
D|-----------------------------------------
A|-4-4-4-4-4-4-4-4-4-4-4-4-4-4-4-4-4-4-4-4-
E|-----------------------------------------

G|-----------------------------------------
D|---------------------4-4-4-4-4-4-4-4-4-4-
A|-----------------------------------------
E|-7-7-7-7-7-7-7-7-7-7---------------------

G|-----------------------------------------
D|-----------------------------------------
A|-4-4-4-4-4-4-4-4-4-4-4-4-4-4-4-4-4-4-4-4-
E|-----------------------------------------

G|-----------------------------------------
D|-----------------------------------------
A|-----------------------------------------
E|-7-7-7-7-7-7-7-7-7-7-2-2-2-2-2-2-2-2-2-2-

G|-----------------------------------------
D|-----------------------------------------
A|-4-4-4-4-4-4-4-4-4-4-4-4-4-4-4-4-4-4-4-4-
E|-----------------------------------------

G|-----------------------------------------
D|---------------------4-4-4-4-4-4-4-4-4-4-
A|-----------------------------------------
E|-7-7-7-7-7-7-7-7-7-7---------------------

G|-----------------------------------------
D|-----------------------------------------
A|-4-4-4-4-4-4-4-4-4-4-4-4-4-4-4-4-4-4-4-4-
E|-----------------------------------------

G|-----------------------------------------
D|-----------------------------------------
A|-----------------------------------------
E|-7-7-7-7-7-7-7-7-7-7-2-2-2-2-2-2-2-2-2-2-

G|-----------------------------------------
D|-----------------------------------------
A|-4-4-4-4-4-4-4-4-4-4-4-4-4-4-4-4-4-4-4-4-
E|-----------------------------------------

G|-----------------------------------------
D|---------------------4-4-4-4-4-4-4-4-4-4-
A|-----------------------------------------
E|-7-7-7-7-7-7-7-7-7-7---------------------

G|-----------------------------------------
D|-----------------------------------------
A|-4-4-4-4-4-4-4-4-4-4-4-4-4-4-4-4-4-4-4-4-
E|-----------------------------------------

G|-----------------------------------------
D|-----------------------------------------
A|-----------------------------------------
E|-7-7-7-7-7-7-7-7-7-7-2-2-2-2-2-2-2-2-2-2-

G|-----------------------------------------
D|-----------------------------------------
A|-4-4-4-4-4-4-4-4-4-4-4-4-4-4-4-4-4-4-4-4-
E|-----------------------------------------

G|-----------------------------------------
D|---------------------4-4-4-4-4-4-4-4-4-4-
A|-----------------------------------------
E|-7-7-7-7-7-7-7-7-7-7---------------------

G|-----------------------------------------
D|-----------------------------------------
A|-4-4-4-4-4-4-4-4-4-4-4-4-4-4-4-4-4-4-4-4-
E|-----------------------------------------

G|-------------------------------------------
D|---------------------4-4-4-4-4-4-4-4-4-4---
A|-----------------------------------------4-
E|-7-7-7-7-7-7-7-7-7-7-----------------------
Comments