Red Hot Chili Peppers - Slow Cheetah Chords & Tabs

 

Slow Cheetah Chords & Tabs

Red Hot Chili Peppers Chords & Tabs

Version: 4 Type: Tab

Slow Cheetah Tab

   
Enjoy! The solo is incomplete, please mail me the good version 
Greets Jelle

Btw tune your guitar to Eb Ab Db Gb Bb Eb

Guitar plays this till 1:01


e-----------------------------------------|
b-------3--------------------7---------12-|
g---4-------------7------9----------------|
D--------------7-------------------12-----|
A-2---2-----/5--5------7---7----/10--10---|
E-----------------------------------------|


Guitar 2 starts this at 0:25

e-9-7-----5-------------------------------|
b-7-7-------7-------5-2-------------------|
g----------------------------4-2----------|
D-----------------------------------------|		2x
A-----------------------------------------|
E-7-------5---------0--------3------------|

e-----------------------------------------|
b-----------------------------------------|
g-----------------------------------------|
D-----------------------------------------|		4x
A-----------------------------------------|
E-7-------5---------0--------3------------|

e-9-7-----5-------------------------------|
b-7-7-------7-------5-2-------------------|
g----------------------------4-2----------|
D-----------------------------------------|
A-----------------------------------------|
E-7-------5---------0--------3------------|

At 1:05 the chorus starts:

		    1:05

e-9-7-----5---------7-7-7-----------------|
b-7-7-------7-------8-8-8-----------------|
g-------------------9-9-9-----------------|
D-------------------9-9-9-----------------|
A-------------------7-7-7-----------------|
E-7-------5---------0-0-0-----------------|

Guitar 1	    1:05
[ Tab from: http://www.guitartabs.cc/tabs/r/red_hot_chili_peppers/slow_cheetah_tab_ver_4.html ]
e-------------------7-7-7-----------------|
b-------3-----------8-8-8-----------------|
g---4-------------7-9-9-9-----------------|
D--------------7----9-9-9-----------------|
A-2---2-----/5--5---7-7-7-----------------|
E-------------------0-0-0-----------------|


Chorus, both guitars play this:

e-------3-3-3--5-5-5--7-7-7-7-7-7---------|
b-------3-3-3--7-7-7--8-8-8-8-8-8---------|
g-------4-4-4--7-7-7--9-9-9-9-9-9---------|
D-------5-5-5--7-7-7--9-9-9-9-9-9---------|		4x
A-------5-5-5--5-5-5--7-7-7-7-7-7---------|
E-------3-3-3---------0~------------------|

At 2:54 Guitar 1 plays this

E--------------------------------------------------|
B-----------5---7----------------7---8-------------|
G-------7---------7----------9---------9-----------|
D---7---------------7----9---------------9---------|        4x
A-5---5---5---5--------7---7---7---7---------------|
E--------------------------------------------------|

At 2:54 guitar 2 plays this with a strange pedal

Eó-10~----12~-----10~------12~---|
B--------------------------------|
G--------------------------------|
D--------------------------------|		2x
A--------------------------------|
E--------------------------------|

After that the chorus comes, and at 3:38 guitar 1 plays the chorus while guitar 2 plays 
solo(I only got the beginning)

E-----------------------------------------|
B------10---------------------------------|
G-9/11----11/9-----11-9-------------------|
D--------------7/9------------------------|
A-----------------------------------------|
E-----------------------------------------|

After that chorus guitar 2 stops with this


E-7~--------------------------------------|
B-8~--------------------------------------|
G-9~--------------------------------------|
D-9~--------------------------------------|
A-7~--------------------------------------|
E-0~--------------------------------------|

Guitar 1  (fades in)

E-------------------------|
B--------------7---7------|
G----7-----7-----9---9----|
D------7------------------|	12x
A--5-----5-----7---7------|
E-------------------------|