Red Hot Chili Peppers - Skinny Sweaty Man Chords & Tabs

 

Skinny Sweaty Man Chords & Tabs

Red Hot Chili Peppers Chords & Tabs

Version: 1 Type: Bass Tab 0 ratings
1 star 2 stars 3 stars 4 stars 5 stars
comments

Skinny Sweaty Man Bass Tab

Artist:Red Hot Chili Peppers
Album:The Uplift Mofo Party Plan
Track:Skinny Sweaty Man
Tabbed by:Daniel Jones

The original tab was very good and all respect to him but he was 
slightly wrong.He said he had watched the video of flea playing 
the song and now I have seen it and can now correct him.

Drum intro

then

G----------------0-----9------------
D-----5-5-----0---------------------
A-5h7-----5h7-----------------------
E------x-x----------0---------------

"Skinny sweaty man in a green suit yeah"
[ Tab from: http://www.guitartabs.cc/tabs/r/red_hot_chili_peppers/skinny_sweaty_man_btab.html ]
G-7-6-4-----------------9------------
D-------7-7-8-9-10-------------------
A------------------7-7---------------
E------------------------------------

G------------------------------------
D-------------5----------------------
A-7-7-5-7-5-7---7-7-5-7--------------
E-----------------------5h7p5-3------

G----------------------------12-10--------------------
D-------------5--------------------12-10-10-----------
A-7-7-5-7-5-7---7-7-5-7-77-----------------12-12-10---
E-----------------------------------------------------


If you want to see the video you should download Kazaa and 
type in flea on the search engine and download flea slap funk session
and he plays skinny sweaty man , blackeyed blonde, and get up and jump
it is truly amazing.just like flea.see ya later.
Comments