Red Hot Chili Peppers - She Looks To Me Chords & Tabs

 

She Looks To Me Chords & Tabs

Red Hot Chili Peppers Chords & Tabs

Version: 3 Type: Tab

She Looks To Me Tab

   
Title: She Looks to Me
Artist: Red Hot Chili Peppers
Album: Stadium Arcadium

Standard tuning

guitar 1 - acoustic
guitar 2 - distortion



awesome song, also not very hard to play


Intro:

here are the chords used the strumming pattern is easy to figure out

guitar 1
  C#m  E  Eadd9
E|-4-|-0-|-2-|
B|-5-|-0-|-0-|
G|-6-|-1-|-1-|
D|-6-|-2-|-2-|
A|-4-|-2-|-2-|
E|-4-|-0-|-0-|




Verse:

guitar1
  Em   D   C
E|-0-|-0-|-0-|
B|-0-|-3-|-1-|
G|-0-|-2-|-0-|
D|-2-|-0-|-2-|
A|-2-|---|-3-|
E|-0-|---|---|




Chorus:


guitar 1
   D   A   E
E|-2-|-0-|-0-|
B|-3-|-2-|-0-|
G|-2-|-2-|-1-|
D|-0-|-2-|-2-|
A|---|-0-|-2-|
E|---|---|-0-|


[ Tab from: http://www.guitartabs.cc/tabs/r/red_hot_chili_peppers/she_looks_to_me_tab_ver_3.html ]
This lead or something like it is played during the second verse

guitar 2
E|-----------------------------|
B|-10h12--10--12p10-8--8h10h12-|
G|-----------------------------|
D|-----------------------------|
A|-----------------------------|
E|-----------------------------|



after the 2nd chorus play these chords

guitar 1
   C   G   E
E|-0-|-3-|-0-|
B|-1-|-0-|-0-|
G|-0-|-0-|-1-|
D|-2-|-0-|-2-|
A|-3-|-2-|-2-|
E|---|-3-|-0-|



and this lead on top of that:

guitar 2
E|--------------|
B|-15b17--15/12-|
G|--------------|
D|--------------|
A|--------------|
E|--------------| x5

E|-----------|
B|-12b13-10/-| <-- slide up to god knows where
G|-----------|
D|-----------|
A|-----------|
E|-----------|


then another verse
then play the intro again

thats it