Red Hot Chili Peppers - She Looks To Me Chords & Tabs

 

She Looks To Me Chords & Tabs

Red Hot Chili Peppers Chords & Tabs

Version: 2 Type: Tab

She Looks To Me Tab

-----------------------------------------------------------------------------
	          She looks to me - Red hot chili pepers
-----------------------------------------------------------------------------
Tabbed by:Steve
Email: Allchavsrgay@hotmail.com

Tuning:EADGBe
[ Tab from: http://www.guitartabs.cc/tabs/r/red_hot_chili_peppers/she_looks_to_me_tab_ver_2.html ]
e|---5-----5-----9-------9-------7-----7------14-------14----------|
B|-----7-----7-----10------10------9-----9-------14-------14-------|
G|-------6-----6------11------11-----9-----9--------11-------11----|
D|-----------------------------------------------------------------|
A|-----------------------------------------------------------------|
E|-----------------------------------------------------------------|

e|---5-----5-----9-------9--------7--------------------------------|
B|-----7-----7-----10------10-----9--------------------------------|
G|-------6-----6------11------11--9--------------------------------|
D|--------------------------------9--------------------------------|
A|-----------------------------------------------------------------|
E|-----------------------------------------------------------------|