Red Hot Chili Peppers - Sexy Mexican Maid Chords & Tabs

 

Sexy Mexican Maid Chords & Tabs

Red Hot Chili Peppers Chords & Tabs

Version: 1 Type: Tab 0 ratings
1 star 2 stars 3 stars 4 stars 5 stars
comments

Sexy Mexican Maid Tab

Sexy mexican maid by the red hot chili peppers
Transcribed by Jesse Volner 

e-----------------------------------------------------------------------------------------------------------------
b-----------------------------------------------------------------------------------------------------------------
g-----------------------------------------------------------------------------------------------------------------
d------------------------------7~5-------5-----------------------------------7~5--------5~0--------5~0---------5--
a------7~5------5------0------------7-------------7~5------5------0-------------7------------7------------7-------
e--0----------7----------------------------------0----------7-----------------------------------------------------
[ Tab from: http://www.guitartabs.cc/tabs/r/red_hot_chili_peppers/sexy_mexican_maid_tab.html ]
e-----------------------------------------------------------------------------------------------------------------
b-----------------------------------------------------------------------------------------------------------------
g------x---x---x---x----2--2----x----x---x---2------x---x---x---x---4--4----x---x---x---4-------------------------
d------x---x---x---x----2--2----x----x---x---2------x---x---x---x---4--4----x---x---x---4-------------------------
a---------------------------------------------------------------------------------------------7-----7-----9-----9-
e---------------------------------------------------------------------------------------------5-----5-----7-----7-

e-----------------------------------------------------------------------------------------------------------------
b-----------------------------------------------------------------------------------------------------------------
g-----------------------------------------------------------------------------------------------------------------
d----------------------------------5------------------------------------------------------------------------------
a----7--5--7--5------7--5--7------7--5--7--5---------7~5----------------------------------------------------------
e--------------------------------------------------------------------7---6---5~3----------------------------------
Comments