Red Hot Chili Peppers - Search And Destroy Chords & Tabs

 

Search And Destroy Chords & Tabs

Red Hot Chili Peppers Chords & Tabs

Version: 4 Type: Tab 0 ratings
1 star 2 stars 3 stars 4 stars 5 stars
comments

Search And Destroy Tab

Name: Search And Destroy Jam
Band: Red Hot Chili Peppers	
Guitarist: John Frusciante


e-------------------------------------------------------------------------------------|
B---------------------------------12-12-12-12-12-10-10-10-10b12r10-9-9-9-9---9--------|
G-11-9-8-9~~-13-11-9-8-9~~-------------------------------------------------9---9-8-9--|
D--------------------------9p6-6------------------------------------------------------|
A-------------------------------------------------------------------------------------|
E-------------------------------------------------------------------------------------|

e-------------12----------------12-------------------------------------------------|
B----10/12-12----12/10-10-10/12----10-9-9-9-9-9-10p9---10p9---10p9---10p9----------|
G--9-------------------------------------------------9------9------9------9--11b9--|
D----------------------------------------------------------------------------------|
A----------------------------------------------------------------------------------|
E----------------------------------------------------------------------------------|

e-----------------------------------|--|------------------------7-7-7-7-7-7------12----9--|
B------9-x-x-----9-x-x-----9-9-9-9--|--|------9-x-x-----9-x-x---9-9-9-9-9-9-10-10---10-9--|
G--8h9-9-x-x-8h9-9-x-x-8h9-9-9-9-9--|--|--8h9-9-x-x-8h9-9-x-x-----------------------------|
D-----------------------------------|x3|--------------------------------------------------|
A-----------------------------------|--|--------------------------------------------------|
E-----------------------------------|--|--------------------------------------------------|

e--9---9-12-9-9-12-------------9-12----------9-12---------9------------|
B----9-------------12-10-9-(9)------12-10-9-------12-10-9--------------|
G-----------------------------------------------------------9-12b~~~~--|
D----------------------------------------------------------------------|
A----------------------------------------------------------------------|
E----------------------------------------------------------------------|

e-------------------------------------------------------------------------------------------------|
B---------9--9------9----9---12------10--9-----9---9---12------10------9------9---9---12------10--|
G--9-8-9--9----9------9----9----9----------9-----9---9----9-------9------9------9---9----9--------|
D----------------11---------------11---------11-------------11------11-----11--------------11-----|
A-------------------------------------------------------------------------------------------------|
E-------------------------------------------------------------------------------------------------|

e----------------------------------|
B--9------9------9--------5-----7--|
G----9------9------9----6-6---8-8--|
D------11-----11------7-----9------|
A----------------------------------|
E----------------------------------|

e------------------------------------------------------------------------------------------|
B--9----9-----9---12----10----9-----9-----9---12-----10-----9-----9-----12-12-----10-------|
G--9------9-----9----9-----9-----9-----9----9-----9-----9-----9-----9---------9------9-----|
D----11-----11---------11---11-----11----11---------11----11----11----11--------11-----11--|
A------------------------------------------------------------------------------------------|
E------------------------------------------------------------------------------------------|

e-----------------------------------9-9---9---12----11---------------------------12-11-9-------------|
B--9------9------9-----5-------7--------9-------9------9---9-12-x-x-9-----9---9----------12---9---9--|
G----9------9--------6-6-----8-8------------9-----9------9------x-x-9---9---9---------------9-9-9----|
D------11-----11---7-----7-9-----9-------------------------------------------------------------------|
A----------------------------------------------------------------------------------------------------|
E----------------------------------------------------------------------------------------------------|
[ Tab from: http://www.guitartabs.cc/tabs/r/red_hot_chili_peppers/search_and_destroy_tab_ver_4.html ]
e------12-11-9---------------------------------------------------------------|
B--9-----------12-10-9--9--9--9--9-------------------------------------------|
G----9---------------9--9--9--9--9--11b13-11b13r11-9-11b13-13-13-13r11-9-----|
D----------------------11-11-11-11---------------------------------------11--|
A----------------------------------------------------------------------------|
E----------------------------------------------------------------------------|

e---------------|--|-----------------------|-----|-------------------------------------------------|
B---9--9--9--9--|--|---9-x-x--9-x-x--9--9--|-12--|---9-x-x--9-x-x-x---9--9-x-x--9--9--12-12-12-12--|
G---9--9--9--9--|--|---9-x-x--9-x-x--9--9--|--9--|---9-x-x--9-x-x-x---9--9-x-x--9--9---9--9--9--9--|
D--11-11-11-11--|x4|--11-x-x-11-x-x-11-11--|-11--|--11-x-x-11-x-x-x--11-11-x-x-11-11--11-11-11-11--|
A--11-11-11-11--|--|-----------------------|-----|-------------------------------------------------|
E---------------|--|-----------------------|-----|-------------------------------------------------|






e---------------------|--|------------------|--|--9-x-x-9-x-x-9-x-x-9--|--|--12-x-x-12-x-x-12-x---|
B---------------------|--|--x--9-x-x-9-x-x--|--|--9-x-x-9-x-x-9-x-x-9--|--|--12-x-x-12-x-x-12-x-----|
G---------------------|--|--x--9-x-x-9-x-x--|--|-----------------------|--|-------------------------------|
D--16b18-16b18r16-14--|--|--x-11-x-x11-x-x--|--|-----------------------|--|-------------------------------|
A---------------------|--|------------------|--|-----------------------|--|-------------------------------|
E---------------------|--|------------------|--|-----------------------|--|-------------------------------|

e--11h12-12-x-16-x--|--|--19-19-x-x-x-19-19--|--|--12--11--9--|--|--12--11--9--16--|
B-----------x-14-x--|--|--19-19-x-x-x-19-19--|--|--14--12--9--|--|--14--12--9--14--|  
G-------------------|--|---------------------|--|--13--13-----|--|--13--13-----14--| 
D-------------------|--|---------------------|--|-------------|--|-----------------| 
A-------------------|--|---------------------|--|-------------|--|-----------------| 
E-------------------|--|---------------------|--|-------------|--|-----------------|

e--11-11-9-9-9-7------------------------------------------------------------------------|
B---9--9---9-----9--9-9-12-14b16r14-9-7-------12-9-9--------------------------7---12-9--|
G---------------------------------------9-8-9--------11-9-8h9-9-8---------9-8---9-------|
D-----------------------------------------------------------------9-11-11---------------|
A---------------------------------------------------------------------------------------|
E---------------------------------------------------------------------------------------|

e------------------------------------------------------------------------------16-16-16-16-16-16--|
B--9-7-9-7-------9-9-7-9-7-------9-9-9-7-9-7-----12-10p9-10p9-10p9-10/14-14-14--------------------|
G----------9-8-9-----------9-8-9-------------9-8--------------------------------------------------|
D-------------------------------------------------------------------------------------------------|
A-------------------------------------------------------------------------------------------------|
E-------------------------------------------------------------------------------------------------|

e-----9--7-----|--|--9--7--5--|--|----9--7-----|
B-----9--7-----|--|--9--7--5--|--|----9--7-----|
G--------------|--|-----------|--|-------------| This part is ska strummed
D--------------|--|-----------|--|-------------|
A--------------|--|-----------|--|-------------| 
E--------------|--|-----------|--|-------------|
PM____________    PM_________    PM___________

e-----------------------------------------|--|------------------------------------|
B---9--9--9--9--7-7-7-7--5-5-5-5-5-5-5-5--|--|---9--9--9--9----7-7-7-7--5---------|
G---9--9--9--9--8-8-8-8--6-6-6-6-6-6-6-6--|--|---9--9--9--9-9--8-8-8-8--6(strum)--|
D--11-11-11-11--9-9-9-9--6-6-6-6-6-6-6-6--|--|--11-11-11-11----9-9-9-9--6---------|
A-----------------------------------------|--|------------------------------------|
E-----------------------------------------|--|------------------------------------|

e-----------------------------------|
B---9--9----9-9----9-x--7--------5--|
G---9--9--------9--9-x--8(strum)-6--|
D--11-11-11-------11-x--9--------6--|
A-----------------------------------|
E-----------------------------------|
Comments