Red Hot Chili Peppers - Scar Tissue Chords & Tabs

 

Scar Tissue Chords & Tabs

Red Hot Chili Peppers Chords & Tabs

Version: 9 Type: Tab 0 ratings
1 star 2 stars 3 stars 4 stars 5 stars
comments

Scar Tissue Tab

   
I listened to the song and im pretty sure this is how it goes
if it's wrong then someone fix it for me i just wanted a good
version of the tab on here cause the rest aren't that good.


intro:

E-----------------------------------------------
B-----10--10--10--10--10----5-5/6--6--6-6-6/5---
G-----------------------------------------------
D-----------------------------------------------
A---8---8---8---8---8-------3-3/5--5-5-5-5/3----
E-----------------------------------------------



E-----------------------------------------------
B-----10--10--10--10--10--8--5/6---6p8-6p8------
G-----------------------------------------------
D-----------------------------------------------
A----8---8---8---8---8-------3/5----------------
E-----------------------------------------------

Verse 1:

E-----------------------------------------------
B-----10--10--10--10--10----5-5/6--6--6-6-6/5---
G-----------------------------------------------
D-----------------------------------------------
A---8---8---8---8---8-------3-3/5--5-5-5-5/3----
E-----------------------------------------------



E--------------------------8---------------------
B-----10--10--10--10--10----8-8/10-10-10-10-8-6-5
G------------------------------------------------
D------------------------------------------------
A---8---8---8---8---8----------------------------
E------------------------------------------------

Chorus:

F C Dm C

Verse 2:

E--------------------------8-----------------13-12-10-8
B-----10--10--10--10--10----8-8/10-10-10-10------------
G------------------------------------------------------
D------------------------------------------------------
A---8---8---8---8---8----------------------------------
E------------------------------------------------------


F C Dm C F C

First Solo:

E-----------------------------------------------
B----13/10--10/8--8/10--10/12/13----------------
G-----------------------------------------------
D-----------------------------------------------
A-----------------------------------------------
E-----------------------------------------------

Verse 3:
[ Tab from: http://www.guitartabs.cc/tabs/r/red_hot_chili_peppers/scar_tissue_tab_ver_9.html ]
E--------------------------8------------------------------
B-----10--10--10--10--10----8-8/10-10-10-10--12-13-12-10-8
G---------------------------------------------------------
D---------------------------------------------------------
A---8---8---8---8---8-------------------------------------
E---------------------------------------------------------

Chorus:

F C Dm C

E--------------------------8----------------12-10-----
B-----10--10--10--10--10----8-8/10-10-10-10------13-12 
G-----------------------------------------------------
D-----------------------------------------------------
A---8---8---8---8---8---------------------------------
E-----------------------------------------------------

F C Dm C F C

Second Solo:


E-------------------------------------------------10/12/13
B--13-15-13-10-10/8-13/10---17-15-13-10-13/8-13/10--------
G---------------------------------------------------------
D---------------------------------------------------------
A---------------------------------------------------------
E---------------------------------------------------------

Verse 4:


E--------------------------8---------------------
B-----10--10--10--10--10----8-8/10-10-10-10-8-6-5
G------------------------------------------------
D------------------------------------------------
A---8---8---8---8---8----------------------------
E------------------------------------------------

Chorus:

F C Dm C F C


Third solo:


E---17-17/15-17/12--12/13/10--8/10-8/10--10/8/5
B----------------------------------------------
G----------------------------------------------
D----------------------------------------------
A----------------------------------------------
E----------------------------------------------


E--5/8/3--5/8/5-------------------------------------------
B---------------------10-10-10-10-------------------------
G--------------7/9/7--------------7/9/7--7/9/5--5/7-------
D--------------------------------------------------7------
A---------------------------------------------------------
E---------------------------------------------------------


E-------13/12---------------------
B----10-------13/15/10----13/8--10
G---------------------------------
D---------------------------------
A---------------------------------
E---------------------------------

That's it! Like i said if i made any mistakes, someone jsut correct them for me.
Oh yeah, the chorus right before any of the solos, you add an F and a C at the
end of the chorus only before a solo though, so i hope everyone enjoys this,
damn it took like an hour to do. David-
Comments