Red Hot Chili Peppers - Scar Tissue Chords & Tabs

 

Scar Tissue Chords & Tabs

Red Hot Chili Peppers Chords & Tabs

Version: 5 Type: Tab 0 ratings
1 star 2 stars 3 stars 4 stars 5 stars
comments

Scar Tissue Tab

Red Hot Chili Peppers
Chris Lazarte kick_ass0@hotmail.com
Scar Tissue


Song: Scar Tissue
Band: Red Hot Chili Peppers
Album: Californication 
Record Label: WEA/Warner Bros. 


Introduction:

e|-----5----5-5---5-------------------------------|
B|--------------------5--5/6---6---6-6----6\5-----|
G|------------------------------------------------|
D|--3----3------3---------------------------------|
A|--------------------3--3/5-----5-----5--5\3--3--|
E|------------------------------------------------|


e|-----5----5-5---5--3----------------------------|
B|-----------------------5--5/6---8h6--8h6--------|
G|------------------------------------------------|
D|--3----3------3---------------------------------|
A|-----------------------3--3/5-------------------|
E|------------------------------------------------|
    

First verse:

e|-----5----5-5---5--------------------------------|
B|--------------------5--5/6---6----6-6----6\5-----|
G|-------------------------------------------------|
D|--3----3------3----------------------------------|
A|--------------------3--3/5-----5------5--5\3--3--|
E|-------------------------------------------------|


e|-----5----5-5----8-------------------5--3--------|
B|---------------------5--5/6---6------------6--5--|
G|-------------------------------------------------|
D|--3----3------3----------------------------------|
A|---------------------3--3/5-----5----------------|
E|-------------------------------------------------|


Chorus: Repeat 2 Times. 
	6x	    1x     6x    1x
e|---1--------0------1-----0------|
B|---1--------1------3-----1------|
G|---2--------0------2-----0------|
D|---3---------------0------------|
A|---3----------------------------|
E|--------------------------------|


Second Verse:
     
e|--------------------------------------------------------------|
B|-----10----10-10----10----------------------------------------|
G|-------------------------9--9/10---10-----10-10------10\9-----|
D|--------------------------------------------------------------|
A|--8-----8--------8--------------------------------------------|
E|-------------------------8--8/10------10---------10--10\9--8--|


e|---------------------10--8---------------------13--12--10--8--|
B|-----10----10-10----------------------------------------------|
G|------------------------------9--9/10--10---------------------|
D|--------------------------------------------------------------|
A|--8-----8--------8--------------------------------------------|
E|------------------------------8--8/10-----10---13--12--10--8--|


Chorus: Repeat 2 Times. 
	6x	    1x     6x    1x
e|---1--------0------1-----0------|
B|---1--------1------3-----1------|
G|---2--------0------2-----0------|
D|---3---------------0------------|
A|---3----------------------------|
E|--------------------------------|


Slide Solo One  (Guitar 2 Strum Chords In Background)

e|--13\10-10****10\8-8----8/10-10----10/12----12/13-13-----|
B|---------------------------------------------------------|
G|---------------------------------------------------------|
D|---------------------------------------------------------|
A|---------------------------------------------------------|
E|---------------------------------------------------------|



Third Verse:

e|-------------------------------------------------------------------|
B|-----10----10-10----10---------------------------------------------|
G|-------------------------9--9/10---10-----10-10------10\9/10\9-----|
D|-------------------------------------------------------------------|
A|--8-----8--------8-------------------------------------------------|
E|-------------------------8--8/10------10---------10--10\9/10\9--8--|

  
e|-----5----5-5----8-------------------------------|
B|---------------------5--5/6---6-----12-13-12-10--|
G|-------------------------------------------------|
D|--3----3------3----------------------------------|
A|---------------------3--3/5-----5----------------|
E|-------------------------------------------------|


Chorus: Repeat 2 Times. 
	6x	    1x     6x    1x
e|---1--------0------1-----0------|
B|---1--------1------3-----1------|
G|---2--------0------2-----0------|
D|---3---------------0------------|
A|---3----------------------------|
E|--------------------------------|


Fourth Verse:

e|-----5----5-5---5-------------------------------|
B|--------------------5--5/6---6---6-6----6\5-----|
G|------------------------------------------------|
D|--3----3------3---------------------------------|
A|--------------------3--3/5-----5-----5--5\3--3--|
E|------------------------------------------------|


e|-----5----5-5----8-------------------12--10----------|
B|---------------------5--5/6---6--------------13--12--|
G|-----------------------------------------------------|
D|--3----3------3--------------------------------------|
A|---------------------3--3/5-----5--------------------|
E|-----------------------------------------------------|





[ Tab from: http://www.guitartabs.cc/tabs/r/red_hot_chili_peppers/scar_tissue_tab_ver_5.html ]
Chorus: Repeat 2 Times. 
	6x	    1x     6x    1x
e|---1--------0------1-----0------|
B|---1--------1------3-----1------|
G|---2--------0------2-----0------|
D|---3---------------0------------|
A|---3----------------------------|
E|--------------------------------|


Slide Solo Two (Rhythm Guitar Playing in Background)

e|--15--15--13--10--10\8-8--13\10-10--15--17--|
B|--------------------------------------------|
G|--------------------------------------------|
D|--------------------------------------------|
A|--------------------------------------------|
E|--------------------------------------------|


e|--13\10-10--10\8-8--13\10-10--15/17--17/18-18--|
B|-----------------------------------------------|
G|-----------------------------------------------|
D|-----------------------------------------------|
A|-----------------------------------------------|
E|-----------------------------------------------|


Fifth Verse:

e|-----5----5-5---5----------------------------|
B|--------------------5--5/6---6---6-6----6\5--|
G|---------------------------------------------|
D|--3----3------3------------------------------|
A|--------------------3--3/5-----5-----5--5\3--|
E|---------------------------------------------|


e|--5-5/6----5----5-5----8-------------------5--3--------|
B|---------------------------5--5/6---6------------6--5--|
G|-------------------------------------------------------|
D|--3-3/4------3------3----------------------------------|
A|---------------------------3--3/5-----5----------------|
E|-------------------------------------------------------|





Chorus: Repeat 2 Times. 
	6x	    1x     6x    1x
e|---1--------0------1-----0------|
B|---1--------1------3-----1------|
G|---2--------0------2-----0------|
D|---3---------------0------------|
A|---3----------------------------|
E|--------------------------------|


Slide Solo Three (Rhythm Guitar Playing in Background)

e|--17--17\15-15--17\12-12--15\10-10--|
B|------------------------------------|
G|------------------------------------|
D|------------------------------------|
A|------------------------------------|
E|------------------------------------|


e|--8/10--10\8--8/10-10--10\8\5--5/8-8--8\5-5--|
B|---------------------------------------------|
G|---------------------------------------------|
D|---------------------------------------------|
A|---------------------------------------------|
E|---------------------------------------------|

e|----------5-5-5-5---------------------------|
B|--3/5\3------------3/5\3--3/5\1-1-----------|
G|-----------------------------------5/7\2-2--|
D|--------------------------------------------|
A|--------------------------------------------|
E|--------------------------------------------|

    
e|---5-5--13\12-12--8/10\5-5--5/8\3/5~~~~~~~~--|
B|---------------------------------------------|
G|---------------------------------------------|
D|---------------------------------------------|
A|---------------------------------------------|
E|---------------------------------------------|
 







For The First Solo, The Following Chords Are Strummed In The Background.

Repeat 2 Times.
    6x	    1x     6x    1x
e|---1--------0------1-----0------|
B|---1--------1------3-----1------|
G|---2--------0------2-----0------|
D|---3---------------0------------|
A|---3----------------------------|
E|--------------------------------|


For Solo's Two & Three A Rhythm Guitar Plays The Following In The Background.

e|-----------------------------------|
B|-----------------------------------|
G|----7----7------7----7---7------7--|
D|-----------------------------------|
A|--5---5----5--5----5---5---5--5----|
E|-----------------------------------|


e|---------------------------------------------------|
B|---------------------------------------------------|
G|---5-----5---5----5-----5---5-----7----7---7-------|
D|---------------------------------------------------|
A|-3---3----3-3---3----3---3-3--3/5---5---5-5--------|
E|---------------------------------------------------|


e|---------------------------------|
B|---------------------------------|
G|-------7---7-----9---9--9/10-----|
D|---------------------------------|
A|-----5---5---5/7---7----7/8------|
E|---------------------------------|
  












Lyrics: Scar Tissue

Scar tissue that I wish you saw
Sarcastic mister know it all
Ah close your eyes and I'll kiss you 'cause
With the birds I'll share
With the birds I'll share
This lonely view
With the birds I'll share
This lonely view and...

Ah push me up against the wall
Young Kentucky girl in a push-up bra
Ah fall-in' all over myself
To lick your heart and taste your health 'cause
With the birds I'll share
This lonely view... 

Blood loss in a bathroom stall
Southern girl with a scarlet drawl
Wave good-bye to ma and pa 'cause
With the birds I'll share
With the birds I'll share
This lonely view
With the birds I'll share
This lonely view 

Soft spoken with a broken jaw
Step outside but not to brawl
Autumn's sweet we call it fall
I'll make it to the moon if I have to crawl and
With the birds I'll share
This lonely view... 

Scar tissue that I wish you saw
Sarcastic mister know it all
Ah close your eyes and I'll kiss you cause
With the birds I'll share
With the birds I'll share
This lonely view
With the birds I'll share 
This lonely view...

Comments