Red Hot Chili Peppers - Scar Tissue Chords & Tabs

 

Scar Tissue Chords & Tabs

Red Hot Chili Peppers Chords & Tabs

Version: 2 Type: Tab 2 ratings
1 star 2 stars 3 stars 4 stars 5 stars
comments

Scar Tissue Tab

            
  
            Song: Scar tissue                          
          artist: Red hot chili peppers
  transcribed by: Iason Gennarakis iason3@hotmail.com
  
 e------------------------------------------------------------------|
 B----11------11------11------11------------------------------------|
 G----------------------------11--10-10/11--11----11----11----11/10-|
 D------------------------------------------------------------------|
 A--9------9-------9-------9----------------------------------------|
 E---------------------------------9--9/11-----11----11----11-------|

 e-----------------------------------9---------------------------|
 B---------11-------11-------11-----11---------------------------|
 G--------------------------------------10----10/11--13-11-13-11-|
 D----------------------------------------11---------------------|
 A-----9-------9--------9-------9--------------------------------|
 E--9------------------------------------------------------------|


 This is my first tab, but it sounds really good, so I think it`s
 right, but if something is wrong just send me a E-mail ;)
[ Tab from: http://www.guitartabs.cc/tabs/r/red_hot_chili_peppers/scar_tissue_tab_ver_2.html ]
Comments