Red Hot Chili Peppers - Scar Tissue Chords & Tabs

 

Scar Tissue Chords & Tabs

Red Hot Chili Peppers Chords & Tabs

Version: 10 Type: Tab 0 ratings
1 star 2 stars 3 stars 4 stars 5 stars
comments

Scar Tissue Tab

This is what I think it sounds like. I could be wrong.  Let me know.  cocobro5@hotmail.com, thanks

e|--------------------------------------------|
B|---10--10-10--10---5-5/6--6---6-6----6\5----|
G|--------------------------------------------| first this
D|--------------------------------------------|
A|--8---8------8-----3-3/5----5------5~~\3----|
E|--------------------------------------------|
[ Tab from: http://www.guitartabs.cc/tabs/r/red_hot_chili_peppers/scar_tissue_tab_ver_10.html ]
e|--------------------------------------------|
B|---10--10-10--10---5-5/6--6---6-6----8--8\6-|
G|--------------------------------------------| then this
D|--------------------------------------------|
A|--8---8------8-----3-3/5----5------5--------|
E|--------------------------------------------|

e|--------------------------------------------|
B|---10--10-10--10---5-5/6--6---6-6----6/5----|
G|--------------------------------------------|
D|--------------------------------------------|
A|--8---8------8-----3-3/5----5------5~~/3----|
E|--------------------------------------------|

e|------------------------------------------------|
B|---10--10-10--10--(13)-5-5/6--6---6-6----8--8p6-|
G|------------------------------------------------| finally
D|------------------------------------------------|
A|--8---8------8---------3-3/5----5------5--------|
E|------------------------------------------------|
Comments