Red Hot Chili Peppers - Scar Tissue Solo Chords & Tabs

 

Scar Tissue Solo Chords & Tabs

Red Hot Chili Peppers Chords & Tabs

Version: 2 Type: Tab 2 ratings
1 star 2 stars 3 stars 4 stars 5 stars
comments

Scar Tissue Solo Tab

Make Sure To Slide
-15/17---17/15---15---15/17/12---12---12/13/10---10/8--8/10--10/8--8/10--10
--------------------------------------------------------------------------------------------
--------------------------------------------------------------------------------------------
--------------------------------------------------------------------------------------------
--------------------------------------------------------------------------------------------
--------------------------------------------------------------------------------------------
[ Tab from: http://www.guitartabs.cc/tabs/r/red_hot_chili_peppers/scar_tissue_solo_tab_ver_2.html ]
-10/8--8/5---5/8/3---5/8/5--5----------------------------------------------------------
--------------------------------------------------------------------------------------------
-----------------------------------------------------------14---14---14---14-----14----
-----------------------------------------12/14/12----------------------------------------
--------------------------------------------------------------------------------------------
--------------------------------------------------------------------------------------------

-----------------------------------------------------13--12--12---7/8710------10---
-------------------------------------------------------------------------------------------
--------------------------------------------14--------------------------------------------
----12/14/10--10--10/12---------------------------------------------------------------
--------------------------------12----12-------------------------------------------------
-------------------------------------------------------------------------------------------

--5/8/5/3---3/5-------------------------------------------------------------------------
------------------------------------------------------------------------------------------
------------------------------------------------------------------------------------------
------------------------------------------------------------------------------------------
------------------------------------------------------------------------------------------
Comments