Red Hot Chili Peppers - Scar Tissue Chords & Tabs

 

Scar Tissue Chords & Tabs

Red Hot Chili Peppers Chords & Tabs

Version: 3 Type: Bass Tab 0 ratings
1 star 2 stars 3 stars 4 stars 5 stars
comments

Scar Tissue Bass Tab

   
Title: Scartissue
Album: Californication
Artist: Red Hot Chili Peppers
Members: Anthony Kiedis, FLEA, John Frusciante and Chad Smith
Transcription: Bass Tab
Tuning: Standard E A D G
Tabbed by: Sean Lewis

Key
 \ = Slide Down To Fret
 h = Hammer On
 p = Pull Off
 X = Muted Note
 > = Let Ring
 I) = Bend Up
 U) = Bend Down
 T = Tap (wack string with joining bone on thumb)
 P = Pop (pull the string upwards with index finger, middle, ring, or pinky 
          releasing it to make a twang)

Intro                         (Verse1) Scartissue that i wish you saw________
G]----------------------]     G]--------------------------------------------]
D]----------------------]     D]--------------------------------------------]
A]------------------12\-]     A]--8------X--8---8---------------------------]
E]----------------------]     E]-------------------5----X--5-------X----8---]

sarcastic  mis-ter know  it all       Close your eyes and i'll kiss you coz
G]--------------------------------------------------------------------------]
D]--------------------------------------------------------------------------]
A]---3/5----5--5---5--5---5--8---5-------8------X--8---8--------------------]
E]-----------------------------------8--------------------5---X--5------X--8]

     with the birds i'll share,
G]----------------------------------] 
D]----------------------------------] 
A]--3/5---5--5---5--5-----------5---] 
E]------------------------5-8-----8-] 

(Verse2) play the same timing
G]-------------------------------------------------------------------------]
D]------------------7----X--7------10-------------/12----10----------------]
A]---8-------8---8--------------X--10----------5-------------12----X---10\-]
E]-------------------------------------8/10--------------------------------]

G]-------------------------------------------------------------------------]
D]---------------------------------------------------/12----10-------------]
A]---8----X--8---8--------------------------------5-------------12--X--10?-]
E]------------------5----X---5----X--8---8/10------------------------------]

Chorus with the birds i share this lonely view____________
G]--------------------------------------------------------]
D]--------------------------------------------------------]
A]-8----X--8---8-------------------5---5-5--5-5-5--8--5---]
E]----------------5--X--5----X--8-----------------------8-]

Chorus2
G]--------------------------------------------------------]
D]--------------------------------------------------------]
A]--8--8--8--8--8--8------------5----5--5-----8-----8-----]
E]--------------------X--8---8----------------------------]
[ Tab from: http://www.guitartabs.cc/tabs/r/red_hot_chili_peppers/scar_tissue_btab_ver_3.html ]
Solo1
G]19---19---19---19----17--14--14--14--14--14----9----9---9----9----9-----]
D]-0----0----0----0-----0---0---0---0---0---0-----------------------------]
A]------------------------------------------------------------------------]
E]---------------------------------------------8----8----8---8---8--------]

G]------------------------------]
D]----------12------------------]
A]-------12-----12\--5--------7-]
E]--10------------------------0-]

Solo2
G]--19---19---19---19--17---14--14--17---14---14----9----9---9---9---9----]
D]---0----0----0----0---0----0---0---0----0----0--------------------------]
A]------------------------------------------------------------------------]
E]------------------------------------------------8----8---8---8----8-----]

G]---------------------------------------------19---19---19-----21---19---]
D]------------12--12------12--------12----------0----0----0------0----0---]
A]------------------------------------------------------------------------]
E]----10--10---------10-------10--------10--10----------------------------]

G]---14---14-17/19---17--14--17----9--9-9---9---9-------------------------]
D]----0----0--0--0----0---0---0-------------------------------------------]
A]-------------------------------------------------------------5-----7----]
E]------------------------------8---8--8---8---8---10---10-10-------------]

This is the last part of the last verse
G]--------------------------------------------------------------]
D]--------------------------------7-----5-----------------------]
A]--------5----5---5---5---5--------------------8----5----------]
E]---8----------------------------------------------------------]

Outro
G]-19--19--19---19---17--14----14---14---14-14----9---9---9---9----9------]
D]--0---0---0----0----0---0-----0----0----0--0----------------------------]
A]------------------------------------------------------------------------]
E]----------------------------------------------8----8--8----8---8--------]

G]-------------------------------19--19--19-21--17--14--14-17-19-17-19-17-]
D]----------12-----12---12--12----0---0---0--0---0---0---0--0--0--0--0--0-]
A]------------------------------------------------------------------------]
E]--10---10-----10---10---10--10------------------------------------------]

G]------9---9---9---9---9------------------------------19--19-19-21---17--]
D]--------------------------------12---12----12---12----0---0--0--0----0--]
A]------------------------------------------------------------------------]
E]--8-----8---8---8---8----10--10----10--10-----10--10--------------------]

G]--14-14-17/-19-17-19-17--14----9---9-9--9---9------------9--------------]
D]---0--0--0---0--0--0--0---0--------------------------12------12-12--12--]
A]------------------------------------------------------------------------]
E]-----------------------------8---8--8--8---8---10--10--10--10---10--10--]

G]-19--19--19--19--17--14--14--17/19-17-19-17------9----10--9-------------]
D]--0---0---0---0---0---0---0----------------------------------10---------]
A]------------------------------------------------------------------------]
E]---------------------------------------------8--8---8-----8-------10----]



Its all there
enjoy

Comments Are Welcome and Would Be Appreciated
Comments