Red Hot Chili Peppers - Save The Population Chords & Tabs

 

Save The Population Chords & Tabs

Red Hot Chili Peppers Chords & Tabs

Version: 2 Type: Tab 0 ratings
1 star 2 stars 3 stars 4 stars 5 stars
comments

Save The Population Tab

SAVE THE POPULATION
RED HOT CHILI PEPPERS

INTRO
                    termino 1       termino 2      termino 3
e:-----6-----------#-10-----10-----#--8-----8-----#--5b--3-------|
B:--8-----6--4--3--#----(8)----(8)-#--------------#--------------|
G:-----------------#---------------#----(8)---(8)-#--------6b--3-|
D:-----------------#---------------#--------------#--------------|
A:-----------------#---------------#--------------#--------------|
E:-----------------#---------------#--------------#--------------|

VERSOS
                    termino 1       termino 2      termino 3
e:-----6----------#--13--13--13--#--11--11--11--#-10-10--8-8--6-6--5-5--4-4-|
B:--8-----6--4--3-#--------------#--------------#---------------------------|
G:----------------#--------------#--------------#---------------------------|
D:----------------#--------------#--------------#---------------------------|
A:----------------#--------------#--------------#---------------------------|
E:----------------#--------------#--------------#---------------------------|
[ Tab from: http://www.guitartabs.cc/tabs/r/red_hot_chili_peppers/save_the_population_tab_ver_2.html ]
                    termino 1       termino 2     termino 3      termino 4
e:---------------#---------------#-------------#--------------#-------------|
B:---------------#---------------#-------------#-7--7--7h8--3-#-x-3--7-7-7--|
G:-----3---------#------3/5------#-----3/7-----#-8--8--8-8--3-#-x-3--8-8-8--|
D:--5------------#---------------#-------------#--------------#-------------|
A:----------6--5-#---------------#-------------#--------------#-------------|
E:---------------#---------------#-------------#--------------#-------------|

    Solm              La#              Solm          La#
e:--x-3-x-x-3-x-3-x-3/6-x-6-x-x-6-x-6--|
B:--x-3-x-x-3-x-3-x-3/6-x-6-x-x-6-x-6--|
G:--x-3-x-x-3-x-3-x-3/7-x-7-x-x-7-x-7--|
D:--x-5-x-x-5-x-5-x-5/8-x-8-x-x-8-x-8--|
A:--x-5-x-x-5-x-5-x-5/8-x-8-x-x-8-x-8--|
E:--x-3-x-x-3-x-3-x-3/6-x-6-x-x-6-x-6--|

    Re#        Dom        Re         Fa#
e:--6-6-6-6-6--3-3-3-3-3--5-5-5-5-5--14-14-14--|
B:--8-8-8-8-8--4-4-4-4-4--7-7-7-7-7--14-14-14--|
G:--8-8-8-8-8--5-5-5-5-5--7-7-7-7-7--15-15-15--|
D:--8-8-8-8-8--5-5-5-5-5--7-7-7-7-7--16-16-16--|
A:--6-6-6-6-6--3-3-3-3-3--5-5-5-5-5------------|
E:---------------------------------------------|

CORO La#        Fa         Solm
e:---6-6-6-6-6--1-1-1-1-1--3-3-3-3-3-----------|
B:---6-6-6-6-6--1-1-1-1-1--3-3-3-3-3-----------|
G:---7-7-7-7-7--2-2-2-2-2--3-3-3-3-3-----------|
D:---8-8-8-8-8--3-3-3-3-3--5-5-5-5-5-----------|
A:---8-8-8-8-8--3-3-3-3-3--5-5-5-5-5-----------|
E:---6-6-6-6-6--1-1-1-1-1--3-3-3-3-3-----------|

el punteo del coro aun no lo saco
apenas lo saque lo anoto

un saludo a los cabros del liceo Oscar Castro Zun˝iga en Rancagua, Chile
el W&%#"=%&$%ER (redlich)                          Red Hot Chili Peppers
Comments