Red Hot Chili Peppers - Rollong Sly Stone Chords & Tabs

 

Rollong Sly Stone Chords & Tabs

Red Hot Chili Peppers Chords & Tabs

Version: 1 Type: Tab 2 ratings
1 star 2 stars 3 stars 4 stars 5 stars
comments

Rollong Sly Stone Tab

   
Album: Red Hot Chili Peppers - Live In Hyde Park
Title: Rolling Sly Stone
Artist: Red Hot Chili Peppers
Tabbed by: sonny.themail@seznam.cz

Bass intro:

     1       2         3       4         1       2           3       4
e´:|-----------------|-----------------|-------------------|-------------------|
h :|-----------------|-----------------|-------------------|-------------------|
g :|-----------------|-----------------|-------------------|-------------------|
D :|-----------------|-----------------|-------------------|-------------------|
A :|-----------------|-----------------|-------------------|-------------------|
E :|-5-5-5-5-5-5-7-8-|-8-8-8-8-8-8-7-5-|-3-3-3-3-3-3-3s5-3-|-5-5-5-5-5-5-3h5p3-|
                                                                     ' '   
  
     1       2         3       4         1       2             3       4       
e´:|-----------------|-----------------|---------------------|---------------------|
h :|-----------------|-----------------|---------------------|---------------------|
g :|-----------------|-----------------|---------------------|---------------------|
D :|-----------------|-----------------|---------------------|---------------------|
A :|-----------------|-----------------|-----------------5---|-------------7-------|
E :|-5-5-5-5-5-5-7-8-|-8-8-8-8-8-8-7-5-|-3-3-3-3-3-3-7s8---8-|-5-5-5-5-7h8---8-7-5-|

                                                         
guitar:

   riff1:                      riff2:                       riff3a:      

     1   2   3   4               1   2   3   4                1   2   3   4      1   2   3   4 
e´:|------------------|     e´:|-----------------|       e´:|------------------|-----------------|  
h :|------------------|     h :|-----------------|       h :|------------------|-----------------|
g :|-------------5-5~-|     g :|-----------5-5~--|       g :|-------------5-5~-|-----------------|
D :|---7---5-7--------|	    D :|---7---5-7-------|       D :|---7---5---7------|-------------5-5-| 
A :|------------------|	    A :|-----------------|       A :|------------------|-5^---------5^---|  
E :|------------------|	    E :|-----------------|       E :|------------------|-----------------| 
 
   riff3:                                       riff4:
     1   2   3   4     1   2   3   4              1   2   3   4   1   2   3   4 
e´:|-----------------|------------------|    e´:|---------------------------8-8888-|
h :|-----------------|------------------|    h :|---------------------------5-5555-|
g :|-------------5-5-|------------------|    g :|-------------5---5h7-------5-5555-|
D :|---7---5-7-------|------------------|    D :|---7---5-7-77---------------------|
A :|-----------------|-5^5-------5^-5h3-|    A :|----------------------------------|
E :|-----------------|------------------|    E :|----------------------------------|
                                    '

[ Tab from: http://www.guitartabs.cc/tabs/r/red_hot_chili_peppers/rollong_sly_stone_tab.html ]
verse1:
 1  .  2  .  3  .  4  . | 1  .  2  .  3  .  4  . | 1  .  2  .  3  .  4  . | 1  .  2  .  3  .  4  .
    Am    Am    Am    Am     Am    Am    Am    Am     G     G     G     G      G     G     G     G

verse1a:
 1  .  2  .  3  .  4  . | 1  .  2  .  3  .  4  . | 1  .  2  .  3  .  4  . | 1   .   2   .   3   .   4   .
    Am    Am    Am    Am     Am    Am    Am    Am     G     G     G     G   G G G G G G G G G G G G G G G

verse2:
 1  .  2  .  3  .  4  . | 1  .  2  .  3  .  4  . | 1  .  2  .  3  .  4  . | 1  .  2  .  3  .  4  .
    Am Am Am Am Am Am C                               C  C  C  C  C  Am    

verse3:
 1 . . . 2 . . . 3 . . . 4 . . . | 1 . . . 2 . . . 3 . . . 4 . . .
 C   C C X   Dm  DmX C   C         C   C C X   Dm  DmX C   C      

 1 . . . 2 . . . 3 . . . 4 . . . | 1 . . . 2 . . . 3 . . . 4 . . .
 Am  AmAmx   Hm  HmX Am  Am        Am  AmAmx   Hm  HmX Am  Am

verse4:   
 1 . . . 2 . . . 3 . . . 4 . . . | 1 . . . 2 . . . 3 . . . 4 . . .
 C   C C X   Dm  DmX C   C         C   C C X   Dm  DmX C   C      

 1 . . . 2 . . . 3 . . . 4 . . . | 1 . . . 2 . . . 3 . . . 4 . . .
 Am  AmAmx   Hm  HmX Am  Am   e´:|-8-8-8-8-8---8-8-8-8-8----------|
			      h :|-5-5-5-5-5---5-5-5-5-5----------|
 			      g :|-5-5-5-5-5---5-5-5-5-5----------|		

verse5:

solo:

      .         1                                                                                        
e´:|---------------------------------------------------------------------8-8-8----8-10^11-10-8-10------14^15-15-15-15-|
h :|----------------------------------------8-----------------5h8-s10-10-------10-------------------------------------|
g :|--5h7^7-----7-5-----------5-----------7^8---7-5-7-5-7^8-5---------------------------------------------------------|
D :|------------------7-5-7-------7-5-7-------------------------------------------------------------------------------|
A :|------------------------------------------------------------------------------------------------------------------|
E :|------------------------------------------------------------------------------------------------------------------|


scheme:

Bass intro    

00:20

riff1, riff1, riff3
riff1, riff1, riff4
riff2, riff2, riff4
riff2, riff2, riff3

00:57
verse1, verse1a

01:15
verse2, verse2

01:32

riff1, riff1, riff3  - no vocals
riff1, riff1, riff4
riff1, riff1, riff3a
riff2, riff2, riff4
riff2, riff2, riff4

02:18
verse1, verse1a

02:37
verse2, verse2

02:55
verse3, verse3, verse3, verse4

03:30        03:38
bass intro + solo in second part

03:49
verse1, verse1a

04:07
verse5   

A5
Comments