Red Hot Chili Peppers - Rolling Sly Stone Chords & Tabs

 

Rolling Sly Stone Chords & Tabs

Red Hot Chili Peppers Chords & Tabs

Version: 2 Type: Tab 0 ratings
1 star 2 stars 3 stars 4 stars 5 stars
comments

Rolling Sly Stone Tab

   
this is the last song of the 1st cd on the new live at hyde park cd.
its a great song so as soon as i herd it i had to know how to play it.
its not that hard just a bit awkwad at times because the chords are
quite high up the neck.

main riff and verse
                                                       h
e|-----------------|------------|-----------------|------------------------|
B|-----------------|------------|-----------------|-------13-13-13-13-13-13|
G|-----------------|------------|-----------------|-------12-12-12-12-12-12|
D|-----------10-10-|------------|-----------10-10-|-10-12------------------|
A|-12-10-12--------|------------|-12-10-12--------|------------------------|
E|-----------------|-10-10/12-8-|-----------------|------------------------|
       X3                              X3
                                           h
e|--------------------|-------------------------------------------------------|
B|--------------------|----------------------13-13-13-13-13-13----------------|
G|--------------------|----------------------12-12-12-12-12-12----------------|
D|----------12(14)-10-|----------------10-12----------------------------------|
A|-12-10-12-----------|-12-10-12-12-12----------------------------------------|
E|--------------------|-------------------------------------------------------|
       X2
                      X2
pre-chorus
these power chords are strumed in a regae style on the 2nd and 4th beat
[ Tab from: http://www.guitartabs.cc/tabs/r/red_hot_chili_peppers/rolling_sly_stone_tab_ver_2.html ]
e|-------------------------------------------------|
B|-13-13-13-13-13-13-13-13-12-12-12-12-15-15-15-15-|
G|-12-12-12-12-12-12-12-12-11-11-11-11-14-14-14-14-|
D|-10-10-10-10-10-10-10-10-9--9--9--9--12-12-12-12-|
A|-------------------------------------------------|
E|-------------------------------------------------|
                      X2

chorus

you can figure out the struming paturn your self, its not that hard. its the
same strum paturn for all the choruses except the last one where it keeps
strumming the last chord.

e|--------------------------------------------------------------------------|
B|-13-13-13-----------------------------------------------------------------|
G|-12-12-12-12-12-14--------------------------------------------------------|
D|-10-10-10-12-12-14--------------------------------------------------------|
A|----------10-10-12--------------------------------------------------------|
E|--------------------------------------------------------------------------|
                      (let ring)

e|----------------------------------------------------------------|
B|-15-15-17-15-15--15-15-17-15-15--13-13-15-13-13--11-11-11-13-11-|
G|-14-14-16-14-14--14-14-16-14-14--12-12-14-12-12--9--9--9--12-9--|
D|-12-12-14-12-12--12-12-14-12-12--10-10-12-10-10--7--7--7--10-7--|
A|----------------------------------------------------------------|
E|----------------------------------------------------------------|

i would do the solo but i cant be bothered to figure it out. but its the
summer hollidays and i'll get borred so i might ut it on later.


tabbed by joe-dude667
Comments