Red Hot Chili Peppers - Rolling Sly Stone Live Chords & Tabs

 

Rolling Sly Stone Live Chords & Tabs

Red Hot Chili Peppers Chords & Tabs

Version: 2 Type: Tab 0 ratings
1 star 2 stars 3 stars 4 stars 5 stars
comments

Rolling Sly Stone Live Tab

Band: Red Hot Chili Peppers
Song: Rolling Sly Stone
Tuning: Standard
[ Tab from: http://www.guitartabs.cc/tabs/r/red_hot_chili_peppers/rolling_sly_stone_live_tab_ver_2.html ]
With wah-wah effect
e|-------------------------------------------12-13-15-17-19-19-17-19--|
B|--------------------------------------------------------------------|
G|-7~--7-5-----5-7~----5-7-7--5-5--5--7-7-5~--------------------------|
D|---------5h7-----5h7------------------------------------------------|
A|--------------------------------------------------------------------|
E|--------------------------------------------------------------------|

e|-19-19-17-----19b-19b-19b------------|
B|----------19-------------------------|
G|-------------------------------------|
D|-------------------------------------|
A|-------------------------------------|
E|-------------------------------------|
Comments