Red Hot Chili Peppers - Roadtrippin Chords & Tabs

 

Roadtrippin Chords & Tabs

Red Hot Chili Peppers Chords & Tabs

Version: 1 Type: Tab 0 ratings
1 star 2 stars 3 stars 4 stars 5 stars
comments

Roadtrippin Tab

   
RoadTrippin' - Red hot chili peppers


      A1               A2
               
E|--3---3--3--|	 |--3---3-5-3--|
B|----0---0-0-|	 |----0--------|
G|------------|  |-------------|
D|-2-2-2-2----|  |-2-2-2-2---2-|
A|------------|  |-------------|
E|------------|  |-------------|


    B

E|------|
B|--5---|
G|----5-|
D|------|
A|-3-3--|
E|------|


     C1              C2              C3	

E|--------|	|---------|	|--------5-|
B|--4---4-|	|--4--4-4-|	|--4-4/7-7-|
G|----0---|	|----0-0--|	|--0-2/5---|
D|--------|	|---------|	|----------|
A|-2-2-2--|	|-2-2-----|	|-2-2------|
E|--------|	|---------|	|----------|

            ChorusRiff    

E|----0----------------7--7---|
B|---1------3-----5-/8-----8--|
G|--2--2---0-----5-5-----7--7-|
D|--------2--2--5------0------|
A|-0-----2-----3--------------|
E|----------------------------|

           

            Instrumental                          
                             Last part 
E|-3----3-----------------| |(5)------|
B|-0---0---4----4--5----5-| |-7----7--|            
G|-0--0----4---4---5---5--| |-7---7---|    X 4 
D|-2-2-----4--4----5--5---| |-7--7----| 
A|---------2-2-----3-3----| |-5-5-----|
E|------------------------| |---------|


E|--5---5----5---------------------------|
B|----7-7--7-7/10-10/13-13/16-16-13-10-7-|(This played instead of 
G|------5--5-5-----8/11-11/14-14-11--8-5-| last part in the 4th time)
D|---------7------10/13-13/16-16-13-10-7-|
A|-5-5-5--5------------------------------|
E|---------------------------------------|


   End 
[ Tab from: http://www.guitartabs.cc/tabs/r/red_hot_chili_peppers/roadtrippin_tab.html ]
E|--3---3---|        |--3-|  
B|----0---0-|        |----|
G|----------|  X 16  |----|
D|-2-2-2-2--|        |-2--|
A|----------|        |----|
E|----------|        |----|


Lyrics: (regular verse is: A1,B,C1  Unless I wrote something else)   

Roadtrippin' with my two favorite allies (A1,C2) 
Fully loaded we got snacks and supplies	  
It's time to leave this town ,it's time to steal away	(A2,C1) 
Let's go get lost anywhere in the U.S.A	

Chorus:
-
Let's go get lost 
Let's go get lost   

Blue you sit so pretty west of the one
Sparkles light with yellow icing
Just a mirror for the sun
Just a mirror for the sun
-

Just a mirror for the sun (ChorusRiff)

These Smiling eyes are just a mirror for	(ChorusRiff)

So much as come before those battles lost and won (A1,C2)
This Life is shining more forever in the sun
Now let us check our heads and let us check the surf
Staying high and dry (is)
More troubles than it worth 
In the sun

Just a mirror for the sun

Just a mirror for the sun (ChorusRiff)

These Smiling eyes are just a mirror for	(ChorusRiff)


-Instrumental-

In big sur we take some time to linger on
We three hunky dory's go our snakefinger on (A1,C3)
Now let us drink the stars
It's time to steal away
Let's go get lost
Right here in the U.S.A

chorus

These Smiling eyes are just a mirror for	(ChorusRiff)
These Smiling eyes are just a mirror for	(ChorusRiff)
Your Smiling eyes are just a mirror for	(ChorusRiff)

(End)






                 -
                  \
             --___!________\     Elad Matari Tabs
             --   !        /
                  /              eladmat@walla.co.il
                 -


Comments