Red Hot Chili Peppers - Road Trippin Chords & Tabs

 

Road Trippin Chords & Tabs

Red Hot Chili Peppers Chords & Tabs

Version: 11 Type: Tab 0 ratings
1 star 2 stars 3 stars 4 stars 5 stars
comments

Road Trippin Tab

Red Hot Chili Peppers, Road Trippin'.
Tabbed by Coutinho, frusciante@clix.pt.
  

    Riff

e-|------3----3----3---------------------|
B-|---------0----0-----5-------4------4--|
G-|-----------------------0-------0------|
D-|------2----2----2---------------------|
A-|--------------------3----3--2----2----|
E-|--(0)---------------------------------|

 (0) it's the bass
[ Tab from: http://www.guitartabs.cc/tabs/r/red_hot_chili_peppers/road_trippin_tab_ver_11.html ]
e-|------3----3--5-3---------------------|
B-|---------0----------5-------4------4--|
G-|-----------------------0-------0------|
D-|------2----2--4-2---------------------|
A-|--------------------3----3--2----2----|
E-|--(0)---------------------------------|

See the notes above? It's when Anthony says: 
"It's time to leave this town"
"Let's go get lost, let's go get lost"
"Now let us check our heads"

    End Part

e-|--3----|                             e-|--3--|
B-|-------|                             B-|-----|
G-|----0--| 16 times and end with this: G-|-----|
D-|--2----|                             D-|--2--|
A-|-------|                             A-|-----|
E-|-------|                             E-|-----|


    This is a simple tab. Hope you enjoy it!
 
:: Ultimate Guitar Archive :: 
http://www.ultimate-guitar.com 

Comments