Red Hot Chili Peppers - Road Trippin Chords & Tabs

 

Road Trippin Chords & Tabs

Red Hot Chili Peppers Chords & Tabs

Version: 1 Type: Tab 0 ratings
1 star 2 stars 3 stars 4 stars 5 stars
comments

Road Trippin Tab

by MATTEO
------
ROAD TRIPPIN

======================================================

G-----3--------3---(5-3)3------------------(3/-7--)---
U---------0--------0----------5--------4------4-------
I---------------------------------0--------0----------
T--2--2--2--2--2--2--2--2-----------------------------
A--------------------------3--3--3--3--2--2--2--2-----
R-----------------------------------------------------

B-----------------------------5-----------------------
A-----2--2--2--5----4---2------------------5---4------
S--------------------------3------3----2--------------
S-----------------------------------------------------

G-----3--------3------3-------------------------------
U---------0--------0----------5--------4------4-------
I---------------------------------0--------0----------
T--2--2--2--2--2--2--2--2-----------------------------
A--------------------------3--3--3--3--2--2--2--2-----
R-----------------------------------------------------

B-----------------------------5-----------------------
A-----2--2--2--5----4---2-----------------------------
S--------------------------3------3----2--------------
S------------------------------------------3---2------

======================================================


G--0-------0---------------------------7----7---------
U-------1------3------3----5------5-----8-----8-------
I------------------0-----------0-----7----7-----7-----
T-----------------------------------------------------
A--0--0--0--0--2--2--2--2--3--3--3--3-----------------
R-----------------------------------------------------

B--------------------------------------7--7--7--7-----
A--7--7--7--7--9--9--9--9--10-10-10-10----------------
S-----------------------------------------------------
S-----------------------------------------------------

======================================================
[ Tab from: http://www.guitartabs.cc/tabs/r/red_hot_chili_peppers/road_trippin_tab.html ]
G--3------3-------------------------------------------
U------0-------2------2----5------5----7------7-------
I-------------------0----------5-----------7----------
T--2--2--2--2-----------------------------------------
A--------------0--0--0--0--3--3--3--3--5--5--5--5-----
R-----------------------------------------------------


B-----------------------------------------------------
A--2--------2-----------------------------------------
S--------------0--------0--3--------3--5--------5-----
S-----------------------------------------------------

G--3------3----------------------------5-------5------
U------0-------2------2----5------5--------4----------
I-------------------0----------5----------------------
T--2--2--2--2--------------------------4--4--4--4-----
A--------------0--0--0--0--3--3--3--3-----------------
R-----------------------------------------------------

B-----------------------------------------------------
A--2--------2--------------------------4--------4-----
S--------------0--------0--3--------3-----------------
S-----------------------------------------------------

==================

G---5-----5-----5-----14----11----8----5----2---------
U------4-----4--------13----10----7----4----1---------
I---------------------14----11----8----5----2---------
T-4--4--4--4--4----13----10-----7----4----1---1-------
A-----------------------------------------------------
R-----------------------------------------------------

B--8--------------------------------------------------
A--7--------------------------------------------------
S-----------------------------------------------------
S-----------------------------------------------------

======================================================
           slower-
G---3-----3-----3-----3-----3--
U------0-----0-----0----0------
I------------------------------
T-2--2--2--2--2--2--2--2--2----
A------------------------------
R------------------------------

B------------------------------
A-2--2--2--2--2--2--2--2--2----
S------------------------------
S------------------------------
Comments