Red Hot Chili Peppers - Road Trippin Chords & Tabs

 

Road Trippin Chords & Tabs

Red Hot Chili Peppers Chords & Tabs

Version: 4 Type: Bass Tab 0 ratings
1 star 2 stars 3 stars 4 stars 5 stars
comments

Road Trippin Bass Tab

intro
     Moderately slow 
G---------------|------------|---5----------|---------------|----------------
D---------------|--5--4------|--------5-----|---------5----4|----------------
A----7---7--7---|--------7---|-3--------3---|-2---2---------|-7---7-----7---7
E---------------|------------|--------------|---------------|----------------

                                           1"Road trip-pin    with   my   two
                                           3"in     big    sur  we take  some
G--------------|----5----------|--------------||-----------------|-----------
D---5---4------|---------5-----|--------------||-----------------|-5----4----
A----------7---|-3---------3---|-2---2--------||----/7-----7--7--|----------7
E--------------|---------------|-------3----2-||--0--------------|-----------

 FA   -  V'RITE   AL - LIES.____      Ful   -  ly  load - ed,  we got snacks 
 and  sup - plies.__  time  to lin - ger on.____ we  three hunk - y do - ries
 got   our  snake
G-----5--------|---------------|------------------|--------------|-----5-----
D---------5----|-------5----4--|------------------|-5-----4------|--------5--
A---3--------3-|-2---2---------|-7---7-----7---7--|-----------7--|-3--------3
E--------------|---------------|------------------|--------------|-----------
 

FIN - GER ON_ IT'S TIME TO LEAVE___ THIS TOWN, IT'S TIME TO STEAL A-WAY______
                  NOW LET US DRINK  THE STARS, IT'S TIME TO STEAL A-WAY______
G--------------|---------------|------------------|-----5--------|-----------
D--------------|---------------|-5----4-----------|---------5----|-----------
A--2--2--------|---/7----7---7-|------------7-----|-3----------3-|-2---2-----
E--------3---2-|-0-------------|------------------|--------------|-------3--2
[ Tab from: http://www.guitartabs.cc/tabs/r/red_hot_chili_peppers/road_trippin_btab_ver_4.html ]
   LET'S  GO  GET  LOST_____ AN-Y - WHERE IN THE  U   .S    .A_______-
   LET'S  GO  GET  LOST_____ RIGHT   HERE IN THE  U   .S    .A_____    
G-------------|--------------------|-------5-----------|-----------------|
D-------------|--5------4----------|------------5------|-----------------|
A-7--7----7--7|---------------7----|---3------------3--|--2----2---------|
E-------------|--------------------|-------------------|----------3----2-|


 MIR- ROR FOR THE SUN.
G--------------------|---------------|--------------|------------------|
D-----------5-----4/-|-7---7----7--7-|-9---9----9--9|-10---10----10--10|
A--2----2------------|---------------|--------------|------------------|
E--------------------|---------------|--------------|------------------|


  These  smil- ing  eyes___ are just a mir - ror for...
 mir                ror                          for...
G--2-----2----2--2---|-4-----4----4--4--|--------------------|---------------
D--------------------|------------------|-10-----10----10--10|12---12--12-12\
A--------------------|------------------|--------------------|---------------
E--------------------|------------------|--------------------|---------------


INTERLUDE

G------------|---------|-----------|-----------|-----------|-----------|
D------------|---------|-----------|-----------|-----------|-----------|
A--7---7-----|---------|-----------|-5------5--|-7------7--|-----------|
E -----------|--5---5--|-8------8--|-----------|-----------|-5------5--|


G------------|---------|------------|------------|------------|-----------|
D--------10--|-10---10-|------------|------------|------------|-----------|
A------------|-9----9--|-7----7--7--|------------|------------|-5----5--5-|
E---8--------|---------|------------|-5----5--5--|-8----8--8--|-----------|


G--------------|----------------|-------------|----------|----|-------|-----
D--------------|----------------|-------------|-----10---|----|-10----|-----
A--7--7--7--7--|----------------|-------------|-9--9---9-|----|-------|---7-
E--------------|-5--5--5--5--5--|-8--8--8-----|----------|----|-------|-----


RAYWALSHE7@YAHOO.CO.UK
ENJOY
Comments