Red Hot Chili Peppers - Road Trippin Chords & Tabs

 

Road Trippin Chords & Tabs

Red Hot Chili Peppers Chords & Tabs

Version: 3 Type: Bass Tab 0 ratings
1 star 2 stars 3 stars 4 stars 5 stars
comments

Road Trippin Bass Tab

Comments:  Ok! This is it to play it on a easy way! Maybe not different from the other 
tab but easier!!!!  Have Fun!!!!    Correction please to:    ladada@gmx.de



Intro

E |----0-0-3-2-0-8---------3-2-|----0-0-3-2-0-8-------------|
B |----------------1---1-0-----|----------------1---1-0-----|
F#|----------------------------|------------------------1-0-|
C#|--3-------------------------|--3-------------------------|
[ Tab from: http://www.guitartabs.cc/tabs/r/red_hot_chili_peppers/road_trippin_btab_ver_3.html ]
Verse 1 (Entire Intro x4 then the second bar x1)

Bridge 1
E  |----------------------------------------------| (x2)
B  |-------------0--0--0-0--1--1--1-1--3--3--3-3--|
F# |--3--3--3-3-----------------------------------|
C# |----------------------------------------------|

Verse 2 (Intro x3 with some variations)

Bridge 2 (Same as Bridge 1)

Cello Solo 
E  |----------|
B  |--2----0--|
F# |---0-3----|
C# |----------|

Verse 3 (Same as Verse 1)

Bridge 3 (Same as Bridges 1 & 2, but twice)
Comments