Red Hot Chili Peppers - Right On Time Chords & Tabs

 

Right On Time Chords & Tabs

Red Hot Chili Peppers Chords & Tabs

Version: 2 Type: Tab 0 ratings
1 star 2 stars 3 stars 4 stars 5 stars
comments

Right On Time Tab

Song:		"Right On Time"
Artist:		Red Hot Chili Peppers
Album:		Californication
Guitar:		John Frusciante
Tabbed by:	Eric(j_f_strat@yahoo.com)

Verse:

e--12x-12xx-12xx-12-12-12xx--------------------------------------------------|
B--12x-12xx-12xx-12-12-12xx--------------------------------------------------|
G----------------------------------------------------------------------------|
D----------------------------------------------------------------------------|
A----------------------------------------------------------------------------|
E----------------------------------------------------------------------------|

CHORUS:

e----9----7---7---9----------------------------------------------------------|
B----9----9---7---10---------------------------------------------------------|
G----9----9---8---11---------------------------------------------------------|
D----11----------------------------------------------------------------------|
A----------------------------------------------------------------------------|
E----------------------------------------------------------------------------|

or.......
[ Tab from: http://www.guitartabs.cc/tabs/r/red_hot_chili_peppers/right_on_time_tab_ver_2.html ]
e----9---12---7---5----------------------------------------------------------|
B----10--10---7---5----------------------------------------------------------|
G----11--11---8---6----------------------------------------------------------|
D----------------------------------------------------------------------------|
A----------------------------------------------------------------------------|
E----------------------------------------------------------------------------|

Its right on time, Its right on time, Its right on time, Its right on time,

Outro:

e-9-9-9-9-9-9-9-9-9-9-9-9-9-9-9-9-9-9-9-9------------------------------------|
B----------------------------------------------------------------------------|
G----------------------------------------------------------------------------|
D----------------------------------------------------------------------------|
A----------------------------------------------------------------------------|
E----------------------------------------------------------------------------|
(kepp play 9th fret, then....)

e--12x-12xx-12---------------------------------------------------------------|
B--12x-12xx-12---------------------------------------------------------------|
G----------------------------------------------------------------------------|
D----------------------------------------------------------------------------|
A----------------------------------------------------------------------------|
E----------------------------------------------------------------------------|

Oh lord!

Thats pretty much it. Look for the right rythm in the verses. Once again
I wanna say John Frusciante is a great guitarist. I really need tabs for
"Jungle Man" and "Fight Like a Brave." If you have those tabs or any
questions/comments e-mail me:

j_f_strat@yahoo.com

Thanx

Eric
Comments