Red Hot Chili Peppers - Purple Stain Chords & Tabs

 

Purple Stain Chords & Tabs

Red Hot Chili Peppers Chords & Tabs

Version: 4 Type: Tab 0 ratings
1 star 2 stars 3 stars 4 stars 5 stars
comments

Purple Stain Tab

Song: Purple Stain
Band: Red Hot Chili Peppers
Album: Californication
Tuning: Standard (eBGDAE)

Tabbed by Knut Zetterstrøm

Verse:
e|-----------------------------------------------------|
B|-----------------------------------------------------|
G|-----------------------------------------------------|
D|-14/5----5-5---5-5-----------------------------------|
A|-----------------------------------------------------|
E|-----------------------------------------------------|
   Play this 5 times

e|-----------------------------------------------------|
B|-----------------------------------------------------|
G|-----------------------------------------------------|
D|---5--7--7-----5--7--7-----5--7--7-----5--7--7-------|
A|-7-----------7-----------7-----------7---------------|
E|-----------------------------------------------------|


e|--x-x--8-8--x-x--8-8--x-x--8-8--x-x--8-8-------------|
B|--x-x--8-8--x-x--8-8--x-x--8-8--x-x--8-8-------------|
G|-----------------------------------------------------|
D|-----------------------------------------------------|
A|-----------------------------------------------------|
E|-----------------------------------------------------|


Chours:
e|-----------------------------------------------------|
B|-------------------8---------------------------------|
G|-------------------7---------------------------------|
D|-5-------------------------------5-------------------|
A|---7--7--7--5--7---7--5--7--7--7----7--7-------------|
E|-----------------------------------------------------|
      Play this 3 times

e|-----------------------------------------------------|
B|--------------------8--------------------------------|
G|--------------------7--------------------------------|
D|-----------------------------------5-----------------|
A|--5--5--5--5--5--5--7--5--5--5--5-----7--7-----------|
E|-----------------------------------------------------|


Outro: (Listen to the rythm) 
e|----------------------------------------------------------------------|
B|----------------------------------------------------------------------|
G|-12-12-12-12--11-11-11-11--12-12-12-12--11-11-11-11--9-9-9-9--7-7-7-7-|
D|-12-12-12-12--11-11-11-11--12-12-12-12--11-11-11-11--9-9-9-9--7-7-7-7-|
A|-10-10-10-10---9--9--9--9--10-10-10-10---9--9--9--9--7-7-7-7--5-5-5-5-|
E|----------------------------------------------------------------------|
   
e|----------------------------------------------------------------------|
B|----------------------------------------------------------------------|
G|-5-5-5-5--7-7-7-7--12-12-12-12--11-11-11-11--14-14-14-14--12-12-12-12-|
D|-5-5-5-5--7-7-7-7--12-12-12-12--11-11-11-11--14-14-14-14--12-12-12-12-|
A|-3-3-3-3--5-5-5-5--10-10-10-10---9--9--9--9--12-12-12-12--10-10-10-10-|
E|----------------------------------------------------------------------|
[ Tab from: http://www.guitartabs.cc/tabs/r/red_hot_chili_peppers/purple_stain_tab_ver_4.html ]
e|----------------------------------------------------------------------|
B|----------------------------------------------------------------------|
G|-12-12-12-12--14-14-14-14--16-16-16-16--12-12-12-12--14-14-14-14------|
D|-12-12-12-12--14-14-14-14--16-16-16-16--12-12-12-12--14-14-14-14------|
A|-10-10-10-10--12-12-12-12--14-14-14-14--10-10-10-10--12-12-12-12------|
E|----------------------------------------------------------------------|

e|-----------------------------------------------------|
B|--------------8-8-8-8--------------------------------|
G|-16-16-16-16--9-9-9-9--------------------------------|
D|-16-16-16-16--9-9-9-9--------------------------------|
A|-14-14-14-14--7-7-7-7--------------------------------|
E|-----------------------------------------------------|


Thats it! Im not sure about the outro, but it seems to be OK.. I'll think you can fint
the song order yourself;) It is not a verry hard song to play, but it is really cool
and rocks! 
If you have any questions, e-mail me at eg_e_meg@hotmail.com
Have fun playing, ROCK ON!



Lyrics:
To finger paint is not a sin
I put my middle finger in
Your monthly blood is what I win
I'm in your house now let me spin

Python power straight from Monty
Celluliod loves got a John Frusciante
Spread your head and spread the blanket
She's too free I'm the patient

Black and white red and blue
Things that look good on you
And if I scream don't let me go
A purple stain-I know

Knock on wood we all stay good
'Cause we all live in Hollywood
With Dracula and Darla Hood
Unspoken words were understood

Up to my ass in alligators
Let's get it on with alligator haters
Did what you did-did what you said
What's the point yo what's the spread

Black and white red and blue
Things that look good on you
And if I scream don't let me go
A purple stain-I know
And if I call for you to stay
Come hit the funk on your way
It's the way out there but I don't care
'Cause this is where- I go

Knock on wood we all stay good
'Cause we all live in Hollywood
With Dracula and Darla Hood
Unspoken words were understood

It's way out there
But I don't care
'Cause this is what
I want to wear

Knock on wood we all stay good
'Cause we all live in Hollywood

To finger paint is not a sin
I put my middle finger in
Your monthly blood is what I win
I'm in your house now let me spin

Farley is an angel and I can prove this 
Feather light but you can't move this 
Purple is the stain upon my pillow 
Let's weep sleeping willow

Black and white red and blue
Things that look good on you
And if I scream don't let me go
A purple stain-I know
And if I call for you to stay
Come hit the funk on your way
It's the way out there but I don't care
'Cause this is where- I go

Knock on wood we all stay good
'Cause we all live in Hollywood
With Dracula and Darla Hood
Unspoken words were understood

It's way out there
But I don't care
'Cause this is what
I want to wear

Knock on wood we all stay good
'Cause we all live in Hollywood
Comments