Red Hot Chili Peppers - Purple Stain Chords & Tabs

 

Purple Stain Chords & Tabs

Red Hot Chili Peppers Chords & Tabs

Version: 4 Type: Bass Tab 0 ratings
1 star 2 stars 3 stars 4 stars 5 stars
comments

Purple Stain Bass Tab

   
-------------------------------------------------------------------------------
			     SONG NAME - Band Name
-------------------------------------------------------------------------------

Tabbed By : chase the face
e-mail:

Tuning:
heres the first part after the guitar does his little diddy
G|-----------------------------------------------------------------------------|
D|-----------------------------------------------------------------------------|
A|-----------------------------------------------------------------------------|
E|---0--0-12\--00--0--9\--0--3--0--0-12\--00--0--9\-0-2-3----------------------|

G|-----------------------------------------------------------------------------|
D|-----------------------------------------------------------------------------|
A|-----------------------------------------------------------------------------|
E|---0--0-12\--00--0--5~\--0--0-12\--0-3---------------------------------------|
here is the chorus
G|----------------------------------------------------------------------------------------5--|
D|------5--7-7-----5--7-7-----5--7-7----5--7-7---5--7-7----5--7-7---5--7-7----5--------------|I
A|---7-----------7------------7-----------7---------7----------7----------7------------------|
E|-------------------------------------------------------------------------------------------|

G|--------------------------------------5--------------------------------------|
D|-----5--7-7----5--7-7----5--7-7---7-5----------------------------------------|
A|---7----------7----------7---------------------------------------------------|
E|-----------------------------------------------------------------------------|
verse2 here we go slightly different
G|-------------------------------------------------------------------------------|
D|-------------------------------------------------------------------------------|
A|--------------------------------------------------------------4-5--------------|
E|---0--0-12\--00--0-9\-0-3--0--0-12\--00--0-9\-0-------0--0-12\-00--0-9\-0-5~---|

G|-----------------------------------------------------------------------------|
D|-----------------------------------------------------------------------------|
A|-----------------------------------------------------------------------------|
E|---0--0-12\-00--0-9\-0-3-----------------------------------------------------|
chorus2 little different
G|-------------------------------------5-------------------------------------5-------|
D|-----5--7-7---5--7-7----5--7-7---5----5--7-7---5--7-7---5--7-7-----7-5-------------|
A|---7---------7----------7---------------7----------7---------7---------------------|
E|-----------------------------------------------------------------------------------|
[ Tab from: http://www.guitartabs.cc/tabs/r/red_hot_chili_peppers/purple_stain_btab_ver_4.html ]
G|-------------------------------------5--------------------------------------------5--|
D|-----5--7-7---5--7-7----5--7-7-----7-5----5--7-7----5--7-7---5--7-7-----7-5----------|
A|---7---------7----------7--------------------7----------7----------7-----------------|
E|-------------------------------------------------------------------------------------|
heres the other part of the song where hes singing about dracula in hollywood
G|-----------------------------------------------------------------------------------|
D|---------------0-2----2--------------0-2---2---------------------------------------|
A|---------0h2------------------0h2--------------------------------------------------|
E|---3-3-------------0-----3-3-------------0-----------------------------------------|
play this a total of 8x
back to the verse
G|-----------------------------------------------------------------------------|
D|-----------------------------------------------------------------------------|
A|-----------------------------------------------------------------------------|
E|---0--0-12\--0--0-12\-00--0-9\-0-3--0--0-12\-00--0-9\-0-2-3------------------|

G|-----------------------------------------------------------------------------|
D|-----------------------------------------------------------------------------|
A|-----------------------------------------------------------------------------|
E|---0--0-12\-00--0-9\-0-5~\--0--0-12\-00--0-9\-0-3----------------------------|
Last chorus
G|--------------------------------------------------------------------------------------5--|
D|-----5--7-7----5--7-7----5--7-7---5--7-7----5--7-7----5--7-7---5--7-7------5-------------|
A|---7----------7----------7----------7----------7----------7----------7-------------------|
E|-----------------------------------------------------------------------------------------|

G|--------------------------------------5-------------------------------------------5--|
D|-----5--7-7----5--7-7----5--7-7----7-5----5--7-7----5--7-7---5--7-7-----7-5----------|
A|---7----------7----------7-------------------7----------7----------7-----------------|
E|-------------------------------------------------------------------------------------|

G|----------------------------------------5---------------------------------------|
D|------5--7-7---5--7-7-----5--7-7-----7-5----------------------------------------|
A|---7----------7----------7------------------------------------------------------|
E|--------------------------------------------------------------------------------|
play the drucula in hollywood thing again excatly the same as above

here is the ending not hard just have to get the timing down
G|-------------------------------------------------------------------------------------|
D|-----14----14----14----14------------------------------------------------------------|
A|------------------------------12h14--------------------------------------------------|
E|---12----12----12----12--------------------------------------------------------------|

thats it just play that over and over again and end on the 12th on e

please rate it and show that you like it
Comments