Red Hot Chili Peppers - Purple Stain Chords & Tabs

 

Purple Stain Chords & Tabs

Red Hot Chili Peppers Chords & Tabs

Version: 3 Type: Bass Tab 0 ratings
1 star 2 stars 3 stars 4 stars 5 stars
comments

Purple Stain Bass Tab

   
 Artist  : Red Hot Chili Peppers
 Title	 : Purple Stain
 Album   : Californication (13)
 Tabber  : FunkAssFleaBass
 Info    : 6/9\0 = Slide op from 6 to 9 
           and then in one part down to the 'A'

 Verse:
 G|---------------------------------|
 D|----14\--------------------------|
 A|----------6/9\0---------5--------|  
 E|-0------0--------0-0--0---3-5----|

 G|---------------------------------|
 D|----14\--------------------------|
 A|----------6/9\0---------5-----3--|  
 E|-0------0--------0-0--0---3-5----|

 G|---------------------------------|
 D|----14\--------------------------|
 A|----------6/9\0---------6-5-3----|  
 E|-0------0--------0-0--0-------5--|

 G|---------------------------------|
 D|----14\--------------------------|
 A|----------6/9\0---------3/5------|  
 E|-0------0--------0-0--0-----3-4--|
[ Tab from: http://www.guitartabs.cc/tabs/r/red_hot_chili_peppers/purple_stain_btab_ver_3.html ]
 
 Chorus:	           |______ 1|______ 2|_______ 3|
 G|------------------------|--------|-7------|-7-------|
 D|---5-77----5-77----5-77-|---5-77-|--7-5---|--7-5-55-|
 A|-7-------7-------7------|-7------|--------|---------|
 E|------------------------|--------|--------|---------|

 Another (easy) way to play|______ 1|______ 2|_______ 3|
 G|------------------------|--------|--------|---------|
 D|------------------------|--------|--------|---------|
 A|------------------------|--------|-3------|-3-------|
 E|-0-3-55--0-3-55--0-3-55-|-0-3-55-|--5-3---|--5-3-33-|


 Bridge: (play with variaton)
 G|-----------------| 8x |---| 
 D|---------0-2--2--| 8x |---| 
 A|-----0-2---------| 8x |---| 
 E|--33---------0---| 8x |-0-| 

 
 Outro: (+another way witch is easyer to play)
 G|---------------------------------| G|----------------------------------| 39x
 D|---14---14---14---14------12-----| D|----------------------------------| 39x
 A|---------------------12/14---14--| A|---7----7----7----7------5--------| 39x
 E|-12---12---12---12---------------| E|-0----0----0----0----5/7---7------| 39x

 
 End:
 G|------|
 D|------|
 A|-10p9-|
 E|------|

 Its a nice number, so play it nice! 
 Comments are always welcome.. Soulwings_cant_fly@Hotmail.com

 Enjoy!
Comments