Red Hot Chili Peppers - Pretty Little Ditty Chords & Tabs

 

Pretty Little Ditty Chords & Tabs

Red Hot Chili Peppers Chords & Tabs

Version: 4 Type: Bass Tab 0 ratings
1 star 2 stars 3 stars 4 stars 5 stars
comments

Pretty Little Ditty Bass Tab

"Pretty little ditty" by the Red Hot Chili Peppers
Bass part by Michael Balzary (Flea)
Tabbed by Dan Bogosian (UtBDan)
Visit UtBDan's band at:
http://www.geocities.com/underthbed/

Note this took me so long to find the correct combination of notes. I'm 98% sure it's 
Part 3 especially took me a long time to do.

PART 1
G -------------------------------------|
D --------10---10-----------10---10----|
A -----10----10---10-----10----10---10-|
E --8-----------------8----------------|
[ Tab from: http://www.guitartabs.cc/tabs/r/red_hot_chili_peppers/pretty_little_ditty_btab_ver_4.html ]
PART 2
   S     P  P       S    P  P  P  P  P
G ----------12--------------12-10-10---------|
D -------12-10-----------12-10-------12h14---|
A -------------------------------------------|
E -8h10-------------8h10---------------------|
   S     P  P       S    P  P  P  P   P
G ----------12--------------12-10-10------|
D -------12-10-----------12-10--------12--|
A ----------------------------------------|
E -8h10-------------8h10------------------|

PART 3
G ---------------------------------------------------------------|
D --10-9-7-7-7~~/10-10-12-12-12------10-9-7-7-7---7--7--9--9--9--|
A -0--0-0-0-0---0--0--0--0--0-------0--0-0-0-0---0--0--0--0--0---|
E ---------------------------------------------------------------|

PART 3 ENDING
G ------------------------------------------------------------------|
D --11-12-14-12-11-14-16-17-16-14---16-17-19-17-16-16-17-19-17-16---|
A -0--0--0--0--0--0--0--0--0--0----0--0--0--0--0--0--0--0--0--0-----|
E ------------------------------------------------------------------|

G ---------|
D ---------|
A --0~~~~--
E ---------
Comments