Red Hot Chili Peppers - Power Of Equality Chords & Tabs

 

Power Of Equality Chords & Tabs

Red Hot Chili Peppers Chords & Tabs

Version: 4 Type: Bass Tab 0 ratings
1 star 2 stars 3 stars 4 stars 5 stars
comments

Power Of Equality Bass Tab

This is a correction of the other bass tab
Now being tabbed by Flea1246

Tune down 1/2 step

Verse

      T T T T T  T T T T  T      T  T  T T  T T  T  T  T
Gb|------------------0-------||----------------------------|
Db|-------2---1--2-----4--3--||-------2---0--2----1--3--0--|
Ab|---0/2--------------------||---0/2----------------------|
Eb|---------0------0---------||---------0------0-----------|

      T  T T  T  T  T  T  T  T  T    All of that x3
  |--------------------0----------|
  |--------2-----0--2-----4--3----|
  |---0/2-------------------------|
  |-----------0-----------------0-|

Chorus

     T T   T  T   T   T   T  T     T T T T T  PT P T P T
  |----------------------------||-------------7--7--10---|
  |----------------------------||------------------------|
  |--6-6---6--6---6---6---6--6-||--4/5-5-5-5---5--/8---8-|
  |----------------------------||------------------------|

Continued
     T T  T     T P P T  T  T  T
  |---------||----x-x------------|
  |---------||-------------------|
  |---------||--------3--3--4--4-|
  |--0-5--4-||--3----------------|
[ Tab from: http://www.guitartabs.cc/tabs/r/red_hot_chili_peppers/power_of_equality_btab_ver_4.html ]
      T T T T T PT P T PT T  T  T    T     P P T  T      X2
  |-------------7--7--10----------|--------x-x----------|
  |-------------------------------|---------------------|
  |---4/5-5-5-5--5--/8--8---------|------------3--4-----|
  |-----------------------0--5--4-|--3------------------|

 Then the bit above (just the first bit)
 Followed By
     T         T
  |-------------------|
  |-------------------|
  |-------------------|
  |--3---------3/15\--|

Interlude (The hard bit)
    T  T P   P TP  P T P P T     T T P  P T P  P T P P  T
  |------8---x--6--x-1-8-----||------8--x---5--x-1-8-------|
  |-1--1-------4---------x---||--1-1------4----------x-----|
  |------------------------4-||-------------------------4--|
  |--------------------------||----------------------------|

    T  T P   P TP  P T P
  |------8---x--5--x-1-8--|
  |-1--1-------4----------|
  |-----------------------|
  |-----------------------|
               P
    T   T PT P T   TP TP T   T P   X2 T   TP TP T   TP TP
  |-------9--9------9--9-------9--|--------9--9------9--9--|
  |------------7/9-------5/7-7----|------------------------|
  |-5/7-7--7-------7--7-----------|---5/7-7--x--5/7-7--7---|
  |------------0------------------|------------------------|

Thats it 
any comments e-mail me at (markwalker02@aol.com)
Comments