Red Hot Chili Peppers - Power Of Equality Chords & Tabs

 

Power Of Equality Chords & Tabs

Red Hot Chili Peppers Chords & Tabs

Version: 3 Type: Bass Tab 0 ratings
1 star 2 stars 3 stars 4 stars 5 stars
comments

Power Of Equality Bass Tab

The Power of Equality by Red Hot Chili Peppers
==============================================
Markups:
	DS = that swirly sign thingy you go back to at DS al  ??
	CC = Coda symbol ??
  ___ ___
  x  |y    =  endings (ie: first and second endings)

There is a figure: +-----+  How the hell do you play it??
		   |-6/8-|  
		   |-----|  
		   +-0---+
When I played this it didnt sound quite right... I think the E has to be
dropped to D.
		-Bucky

			     DS
+-----+---+---+-------------+----------------+-----------------------+
|4:-R-|-R-|-R-|-R-R---------|*---------------|-----------------------|
|4:---|---|---|-----9-8-7\--|*-----6---5-6-6-|-----6---5-6-6---9-8-7-|
+-----+---+---+-----------0-+--5/7---0-------+-5/7---0-------0-------+

+---------------------+-------------------------+---------------+
|---------------------|-------------R-----------|---------------|
|-----6---4-6---5-6-4-|-----6---4-6---9-8---7---|-----6---5-6-6-|
+-5/7---0-----0-------+-5/7---0---------------0-+-5/7---0-------+

+-----------------------+---------------------+-------------------------+
|-----------------------|---------------------|-------------R-----------|
|-----6---5-6-6---9-8-7-|-----6---4-6---5-6-4-|-----6---4-6---9-8---7---|
+-5/7---0-------0-------+-5/7---0-----0-------+-5/7---0---------------0-+

+---------------+-----------------------+---------------------+
|---------------|-----------------------|---------------------|
|-----6---5-6-6-|-----6---5-6-6---9-8-7-|-----6---4-6---5-6-4-|
+-5/7---0-------+-5/7---0-------0-------+-5/7---0-----0-------+

+-----------------+-------6---6-----9---------+-------x-x---------+
|-----------------|---------------------------|---R-R-------------|
|-5-5-5-5-5-5-5-5-|-3/4-4---4---X/7---7-------|-----------2-2-3-3-|
+-----------------+---------------------0-5-4-+-3-----------------+

+-------6---6-----9---------+-----0-0---------+-------6---6/X---9---------+
|---------------------------|-R-R-------R---R-|---------------------------|
|-3/4-4---4---X/7---7-------|---------2---3---|-3/4-4---4-----7---7-------|
+---------------------0-5-4-+-----------------+---------------------0-5-4-+
								  CC
[ Tab from: http://www.guitartabs.cc/tabs/r/red_hot_chili_peppers/power_of_equality_btab_ver_3.html ]
+-------x-x---------+-------6---6-----9---------+------------------+
|---R-R-------------|---------------------------|---R-R-R----------|
|-----------2-2-3-3-|-3/4-4---4---X/7---7-------|------------------|
+-3-----------------+---------------------0-5-4-+-3-------(3/17\X)-+
______________________________________________________________________
1
+---------------+-----------------------+-----------------------+
|---------------|-----------------------|-----------------------|
|-----6---5-6-6-|-----6---5-6-6---9-8-7-|-----6---4-6-6---5-6-4-|
+-5/7---0-------+-5/7---0-------0-------+-5/7---0-------0-------+

___________________________ ______________                            
			   |2
+--------------------------+-----7-R-x---5-R-x---7-R-x---+
|-------------R-----------*|-----------3-------5---------|
|-----6---4-6---9-8-8-7---*|-5-5-----------------------3-|
+-5/7---0---------------0--+-----------------------------+

+-----7---x---4---x---7---x---+-----7---x---5---x---7---x---+
|-------R---3---R---5---R-----|-------R---3---R---5---R-----|
|-5-5-----------------------3-|-5-5-----------------------3-|
+-----------------------------+-----------------------------+

+-----7---x---4---x---7---x---+-----7---x---5---x---7---x---+
|-------R---3---R---5---R-----|-------R---3---R---5---R-----|
|-5-5-----------------------3-|-5-5-----------------------3-|
+-----------------------------+-----------------------------+

								   D.S. al Coda
+-----7---x---5---x---7---x---+-----7---x---4---x---7---x---+-----7---x---4---++
|-------R---3---R---5---R-----|-------R---3---R---5---R-----|-------R---3---R-||
|-5-5-----------------------3-|-5-5-----------------------3-|-5-5-------------||
+-----------------------------+-----------------------------+-----------------++

Coda
+---------------+-----------------------+---------------------+---------------+
|---------------|-----------------------|---------------------|-------------R-|
|-----6---5-6-6-|-----6---5-6-6---9-8-7-|-----6---4-6---5-6-4-|-----6---5-6---|
+-5/7---0-------+-5/7---0-------0-------+-5/7---0-----0-------+-5/7---0-------+

+----------------+-----------------------+---------------------+--------------------------+
|*---------------|-----------------------|---------------------|-------------R-----------*|
|*-----6---5-6-6-|-----6---5-6-6---9-8-7-|-----6---4-6---5-6-4-|-----6---4-6---9-8-8-7---*|
+--5/7---0-------+-5/7---0-------0-------+-5/7---0-----0-------+-5/7---0---------------0--+

+-6/8---8---8-------8---8-------8-+-6/8---8---8-------8---8-------8-+
|-------------6/8---------4/6-6---|-------------6/8---------4/6-6---|
|-----6---6-------6---6-----------|-----6---6-------6---6-----------|
+-------------0-------------------+-------------0-------------------+

+--------8---8-------8---8-------8-+-------8---8-------8---8-------8--+
|*-------------------------4/6-6---|-------------------------4/6-----*|
|*-4/6-6---6---4/6-6---6-----------|-4/6-6---6---4/6-6---6-----------*|
+----------------------------------+-----------------------------7----+

+--------8---8-------8---8-------8-+-------8---8-------------+-+
|*-------------------------4/6-6---|-------------------------|||
|*-4/6-6---6---4/6-6---6-----------|-4/6-6---6---4/6-9-8-8-7-|||
+----------------------------------+-------------------------+-+
Comments