Red Hot Chili Peppers - Porcelain Chords & Tabs

 

Porcelain Chords & Tabs

Red Hot Chili Peppers Chords & Tabs

Version: 3 Type: Bass Tab 0 ratings
1 star 2 stars 3 stars 4 stars 5 stars
comments

Porcelain Bass Tab

   
-----------------------------------------------------------------------------
			     Red Hot Chilli Peppers - Porcelain
-----------------------------------------------------------------------------

Tabbed By : Tristan
e-mail: tristanvigar@gmail.com

Tuning: EADG


Intro/Verse

G|-----6---------------6-------------|(x2)
D|-------7---------------7-----------|
A|--5------5--------5--------5\------|
E|-----------5----5---------------2--|

G|-----6---------------6-------------|(x1)
D|-------7---------------7-----------|
A|--5------5--------5--------5\------|
E|-----------5--------------------2--|

G|-----6------------------------6-------------|(x1)
D|-------7------------------------7-----------|
A|--5------5-------7---------5--------5\------|
E|-----------5-----------------------------2--|

Chorus

G|----------------------------------------|
D|----------------------------------------|
A|--2--------------2-----------2----------|
E|------2----5-----------5----------2----5|

G|-------------------------|
D|-------------------------|
A|------------------------7|
E|--0------4--------7------|

Verse

G|-----6---------------6-------------|(x2)
D|-------7---------------7-----------|
A|--5------5--------5--------5\------|
E|-----------5--------------------2--|
[ Tab from: http://www.guitartabs.cc/tabs/r/red_hot_chili_peppers/porcelain_btab_ver_3.html ]
G|-----6--------------------------------6-------------|(x1)
D|-------7----------------------------------7---------|
A|--5------5----------------5--7----5-----------5\----|
E|-----------5-------5--7---------------------------2-|

G|-----6---------------6-------------|(x1)
D|-------7---------------7-----------|
A|--5------5--------5--------5\------|
E|-----------5--------------------2--|

Chorus

G|----------------------------------------|
D|----------------------------------------|
A|--2--------------2-----------2----------|
E|------2----5-----------5----------2----5|

G|-----------------------------|
D|-----------------------------|
A|------------------------7----|
E|--0------4--------7----------|

G|-------------------------------------------|
D|-------------------------------------------|
A|---2-------------------------2---2h4p2-----|
E|-----------2-------5----------------------5|

G|----------------------------------------------------9/11\9--------|
D|-----------------------------------6----6------9---------------0--|
A|---2-------------------------7------------------------------------|
E|-----------2-------5----------------------------------------------|

If you like it, please rate it.


| /  slide up
| \  slide down
| h  hammer-on
| p  pull-off
| ~  vibrato
| +  harmonic
| x  Mute note
============================================================================
Comments