Red Hot Chili Peppers - Pea Live Chords & Tabs

 

Pea Live Chords & Tabs

Red Hot Chili Peppers Chords & Tabs

Version: 1 Type: Bass Tab 0 ratings
1 star 2 stars 3 stars 4 stars 5 stars
comments

Pea Live Bass Tab

Red Hot Chili Peppers - Pea (live)
Submitted By: rap_boy
EMail: jason_wassup@hotmail.com


g|--------------------------------------
d|-3-33-33-33-33-33-3------3-33-33-33-3-
a|-------------------4-44-4-------------
e|--------------------------------------

g|---------------------------------------------------
d|-3-33-3------------------3-33-3--------------------
a|-------4-44-43-33-31-11-1-------4-44-43-33-31-11-1-
e|---------------------------------------------------

g|---------------------------------------------------
d|-3-33-3------------------3-33-3--------------------
a|-------4-44-43-33-31-11-1-------4-44-43-33-31-11-1-
e|---------------------------------------------------

g|--------------------------------------
d|-3/5-55-58-88-83--3-3--3-3--33-33-023-
a|--------------------------------------
e|--------------------------------------
[ Tab from: http://www.guitartabs.cc/tabs/r/red_hot_chili_peppers/pea_live_btab.html ]
g|------------------------------
d|-5-55-58-88-83-33-3-33--3-3-3-
a|------------------------------
e|------------------------------

g|----------------------------------
d|-2-22-2------0-3--2-22-2------0-5-
a|--------3--3-------------3--3-----
e|----------------------------------

g|-------------------------------------
d|-2-22-2------0-3--2-22-2--0--0-3-3-2-
a|--------3--3-------------------------
e|-------------------------------------

g|------------------------------------------------------------
d|-2-2--22-2--2--0--3-3-3--2--2-2-2-2-2-2-2---0-0-0-0-3-3-3-3-
a|------------------------------------------------------------
e|------------------------------------------------------------

g|--------------------------------------------
d|-2--2-2-2-2-2-2---0-0-0-0-3-3-3-3---2-------
a|----------------------------------------000-
e|--------------------------------------------
Comments