Red Hot Chili Peppers - Pea Chords & Tabs

 

Pea Chords & Tabs

Red Hot Chili Peppers Chords & Tabs

Version: 3 Type: Bass Tab 0 ratings
1 star 2 stars 3 stars 4 stars 5 stars
comments

Pea Bass Tab

Pea by Red Hot Chili Peppers
"Tabbed" by Twarge


I hope this is seen well...Anyway, this is a variation of zappps tabs, which I found wrong...Sorry, zappp. This version is regular EADG tuning and the tabs are seen from highest to lowest string as usual.


 I'm a little pea...             I'm a teeny tiny...
------------------------------------------------------------------
3x-33x-3------------------------3x-33x-3--------------------------
--------4x-44x-43x-33x-31x-11x-1--------4x-44x-43x-33x-31x-11x-1--
------------------------------------------------------------------

        I am nothing...                And I'm a pacifist...
------------------------------------------------------------------
3x-22x-2------------------------2x-22x-2--------------------------
--------4x-44x-43x-33x-31x-11x-1--------4x-44x-43x-33x-31x-11x-1--
------------------------------------------------------------------
[ Tab from: http://www.guitartabs.cc/tabs/r/red_hot_chili_peppers/pea_btab_ver_3.html ]
       Oh yeah I'm small...                 Oh yeah I'm small...

----------3x-33x-3-----------------------------3x-33x-3-----------
4/5x-55x-5--------3x-33x-333x-3x-3x--345x-55x-5--------3x-33x-333x
------------------------------------4-----------------------------
------------------------------------------------------------------
          Fuck you asshole...         You're big and tough...
------------------------------------------------------------------
3x-3x-32x-22x-2-----32x-22x-2------2x-22x-2-----32x-22x-2----333x-
---------------3x-35---------3x-351--------3x-35---------5x-5-----
------------------------------------------------------------------


------------------------------------------------------------------
22-2-222-2----33x-2-2222222----33332-2222222----33332-------------
----------5x-5-------------5555-------------5555------------------
------------------------------------------------------------------
Comments